Cifra Club

Muchacha Ojos de Papel

Luis Alberto Spinetta

Cifrado: Principal (guitarra y guitarra eléctrica)
tono: G
[Intro]
                     C G/B Am7 G
E|-------------------0--3---0---3--------------|
B|-----0-----0--0--0-1--3---1---3--------------|
G|----0-----0--------0--0---0---0--------------|
D|-0h2---0h1---0-----2--0---2---0--------------|
A|----------------4--3--2---0---2--------------|
E|------------------------------3--------------|

                      C G/B Am7 G  C G/B Am7 G
E|-0h3----------------0--3--0---3--0--3--0---3-|
B|-----0---0---0---0--1--3--1---3--1--3--1---3-|
G|----0---0---0----0--0--0--0---0--0--0--0---0-|
D|--------------------2--0--2---0--2--0--2---0-|
A|--3----2---1---0----3--2--0---2--3--2--0---2-|
E|------------------------------3------------3-|

[Refrão]

G     D/F#   Em
  Muchacha ojos de papel
        Am7              D         D4
Adonde vas ? Quédate hasta el alba
G     D/F#    Em
  Muchacha pequeños pies
           Am7              D        D4
No corras más , quédate hasta el alba

[Primeira Parte]

Em          Em7M       Em7        Em6
  Sueña un sueño despacito entre mis manos
C            G/B            Am7     D     D4
  Hasta que por la ventana suba el sol
G     D/F#   Em
  Muchacha piel de rayón
           Am7                G
No corras más , tú tiempo es hoy

             C      Em
Y no hables más muchacha
     Cm     G
Corazón de tiza
        C     C/B
Cuando todo duerma
      Am7       G
Te robaré un color

[Refrão]

G     D/F#    Em
  Muchacha voz de gorrión
        Am7             D       D4
Adonde vas? Quédate hasta el día
G     D/F#     Em
  Muchacha pechos de miel
           Am7              D      D4
No corras más , quedate hasta el día

Em        Em7M       Em7                Em6
  Duerme un poco y yo entre tanto contruiré
C        G/B          Am7             D
  Un castillo en tu vientre hasta que el sol
G     D/F#       Em
  Muchacha te haga reír
        Am7            G
Hasta llorar , hasta llorar
             C      Em
Y no hables más muchacha
     Cm     G
Corazón de tiza
        C     C/B
Cuando todo duerma
      Am7       G
Te robaré un color
Composición de Luis Alberto Spinetta
Colaboración y revisión:
27.100 vistas
    • ½ Tono
    • A
    • Bb
    • B
    • C
    • Db
    • D
    • Eb
    • E
    • F
    • F#
    • G
    • Ab
  • Agregar a la lista

    0 comentarios

    Ver todos los comentarios

    ¿Lograste tocar?

    9 Tocaron 1 Aún no

    ¡Graba un video tocando Muchacha Ojos de Papel y envíanoslo!

    00:00 / 00:00
    Outros vídeos desta música
    Repetir Calidad Automático
    Outros vídeos desta música
    00:00 / 00:00
    Automático
    OK