Cifra Club

Aprenda

Calypso (feat. Stefflon Don)

Luis Fonsi

Tablatura: Principal (guitarra)
tono: G
[Intro] E  F#m  E  F#m
        E  F#m
   E
E|------------------------------|
B|---0-------------0------------|
G|-----1---1---------1---1------|
D|-2-----2---2---2-----2---2----|
A|------------------------------|
E|------------------------------|

   F#m
E|------------------------------|
B|---2-------------2------------|
G|-----2---2---------2---2-1----|
D|-4-----4---4---4-----4-----4--|
A|------------------------------|
E|------------------------------|

   E
E|------------------------------|
B|---0-------------0------------|
G|-----1---1---------1---1------|
D|-2-----2---2---2-----2---2----|
A|------------------------------|
E|------------------------------|

   F#m
E|------------------------------|
B|---2-------------2------------|
G|-----2---2---------2----------|
D|-4-----4---4---4-----4--------|
A|------------------------------|
E|------------------------------|

   E
E|------------------------------|
B|---0-------------0------------|
G|-----1---1---------1----------|
D|-2-----2---2---2-----2--------|
A|------------------------------|
E|------------------------------|

E|------------------------------|
B|---0-------------0------------|
G|-----1---1---------1---1------|
D|-2-----2---2---2-----2---2----|
A|------------------------------|
E|------------------------------|

   F#m
E|------------------------------|
B|---2--------------------------|
G|-----2---2------2-1-----------|
D|-4-----4---4---------4--------|
A|------------------------------|
E|------------------------------|

[Primeira Parte]

       E
Yo no sé, no sé, no sé, que pasará
                     F#m
Tu cuerpo frente al mar
Mezclando arena con sal
Yeah (come on)
      E
Pero sé, yo sé, yo sé, yo sé
Que no es normal
                F#m
Lo que puede pasar
Si tú me dejas entrar yeah

[Pré-Refrão]

    E
Yo tengo lo que tú buscas
Calienta tanto que asusta
   F#m
Y sabes lo que te gusta
Te gusta, te gusta
      E
Prendiendo fuego en el suelo
Pintando estrellas en el cielo
   F#m
Y te diré lo que quiero

[Refrão]

                    E
Si tú te quedas conmigo
Bailando toda la noche
             F#m
Cerquita de mí
Al ritmo de amor y derroche
           E
Lo que me pidas, yo lo haré
Donde tú vayas, llegaré
         F#m
Toda la noche, te daré calypso
Te daré calypso

E
Un, dos, tres, calypso
Un, deux, trois, calypso
F#m
One, two, three, calypso
Te daré calypso

E
Un, dos, tres, calypso
Un, deux, trois, calypso
F#m
One, two, three, calypso
Te daré calypso

[Segunda Parte]

E
 Ain't got no safety but I swear I be falling (hey)
Dady, dady, yea i know that u want it (hey)
F#m
Don't wanna fight cuz I love when we dancing
Un, dos, tres, ta buena
E
 Con un poquito de ese ron en tu boca
No tan poquito pa que te vuelvas loca
F#m
  Esa mirada tuya no se equivoca
Un, dos, tres, ta buena

E
Any weh yuh deh mi deh u know i tip it up
Top down, all in ur town, we live it up
  F#m
Still got an attitude n I don't give a
Tell de DJ, ah money pull up when we pull up
     E
The way di ting set up
Man ah get tek up (yeah)
Dem a move slow so di don just sped up
F#m
U know we never lack
Pull up to the front
But we came in through he back

[Pré-Refrão]

    E
Yo tengo lo que tú buscas
Calienta tanto que asusta
   F#m
Y sabes lo que te gusta
Te gusta, te gusta
      E
Prendiendo fuego en el suelo
Pintando estrellas en el cielo
   F#m
Y te diré lo que quiero

[Refrão]

                    E
Si tú te quedas conmigo
Bailando toda la noche
             F#m
Cerquita de mí
Al ritmo de amor y derroche
           E
Lo que me pidas, yo lo haré
Donde tú vayas, llegaré
         F#m
Toda la noche, te daré calypso

[Ponte]

                    E
Si tú te quedas conmigo
Bailándome hasta mañana
             F#m
Corremos el riesgo
De despertar en mi cama
           E
Lo que me pidas, yo lo haré
Donde tú vayas, llegaré
         F#m
Toda la noche, te daré calypso
Te daré calypso

[Final]

E
Un, dos, tres, calypso
Un, deux, trois, calypso
F#m
One, two, three, calypso
Te daré calypso

E
Un, dos, tres, calypso
Un, deux, trois, calypso
F#m
One, two, three, calypso
Te daré calypso

E
Un, dos, tres, calypso
(Boom pon the rhythm, boom pon the bassline)
Un, deux, trois, calypso
(Confident, you never get decline)
F#m
One, two, three, calypso
(Man come after and beg you take time)
               E
Te daré calypso
Colaboración y revision:
  • Thiago Almeida
328 reproducciones
    • ½ Tono
    • A
    • Bb
    • B
    • C
    • Db
    • D
    • Eb
    • E
    • F
    • F#
    • G
    • Ab
  • Adicionar à lista

    0 comentarios

    Ver todos os comentários

    ¿Conseguiste tocar?

    0 Tocaram 0 Ainda não

    Grave um vídeo tocando Calypso (feat. Stefflon Don) e nos envie!

    00:00 / 00:00
    outros vídeos desta música
    repetir qualidade Automático
    Outros vídeos desta música
    00:00 / 00:00
    Automático
    OK