Cifra Club

Despacito

Luis Fonsi

Cifrado: Principal (guitarra y guitarra eléctrica)
tono: Bm
[Intro]

(Arpejo 01)
   Bm                 G                 D                 A
E|------2-------2---|-----3-------3---|-----3-------3---|-----0-------0---|
B|--------3-------3-|-------3-------3-|-------2-------2-|-------2-------2-|
G|----4-------4-----|---0-------0-----|---3-------3-----|---2-------2-----|
D|------------------|-----------------|-0-------0-------|-----------------|
A|-2--------2-------|-----------------|-----------------|-0-------0-------|
E|------------------|-3-------3-------|-----------------|-----------------|

(Arpejo 02)
   Bm                G                 D                 A
E|-2---2-------2---|-3---3-------3---|-3---3-------3---|-0----0-------0---|
B|-3-----3-------3-|-3-----3-------3-|-2-----2-------2-|-2------2-------2-|
G|-4-4-------4-----|-0-0-------0-----|-3-3-------3-----|-2-2--------2-----|
D|-4---------------|-0---------------|-0-------0-------|-2----------------|
A|-2-------2-------|-0---------------|-----------------|-0--------0-------|
E|-----------------|-3-------3-------|-----------------|------------------|

E|-7-10-9-7----7-|-7-9-10-12-14----14----14----|------10---9---7----------|
B|-7--------10---|--------------15----15----15-|--------------------------|
G|-7-------------|-----------------------------|-9/11----9---7------------|
D|---------------|-----------------------------|--------------------------|
A|---------------|-----------------------------|--------------------------|
E|---------------|-----------------------------|--------------------------|

E|---10-9-7------|---10-9-7-9-10----|----10-9-10-12-9-|------10---9---7---|
B|-7--------10-8-|-8-------------10-|-10--------------|-------------------|
G|---------------|------------------|-----------------|-9/11----9---7-----|
D|---------------|------------------|-----------------|-------------------|
A|---------------|------------------|-----------------|-------------------|
E|---------------|------------------|-----------------|-------------------|

[Primeira Parte]

Bm                            G
Si,sabes que ya llevo rato mirándote
 D                        A
Tengo que bailar contigo hoy
 Bm                            G
Vi que tu mirada ya estaba llamándome
 D                          A
Muéstrame el camino que yo voy

 Bm                                G
Tú, tú eres el imán y yo soy el metal
                                    D
Me voy acercando y voy armando el plan
                                 A
Solo con pensarlo se acelera el pulso
Bm                                 G
Ya, ya me está gustando más de lo normal
                                 D
Todos mis sentidos van pidiendo más
                                  A
Esto hay que tomarlo sin ningún apuro

[Refrão]

      Bm             
Despacito, quiero respirar
                G
Tu cuello despacito
                           D
Deja que te diga cosas al oído

Para que te acuerdes
                A
Si no estás conmigo
      Bm            
Despacito quiero desnudarte
              G
A besos despacito

Firmo en las paredes
           D
De tu laberinto

Y hacer de tu cuerpo
           A
Todo un manuscrito

Sube sube

Sube, sube, sube

[Ponte]

  Bm
Quiero ver bailar tu pelo
                  G
Quiero ser tu ritmo
                     D
Que le enseñes a mi boca
                 A
Tus lugares favoritos
 Bm                
Déjame sobrepasar
                G
Tus zonas de peligro
                     D
Hasta provocar tus gritos
                      A
Y que olvides tu apellido

( Bm  G  D  A )

[Segunda Parte]

                         Bm
Si te pido un beso ven dámelo

Yo sé que estás pensándolo
                G
Llevo tiempo intentándolo

Mami esto es dando y dándolo
                D
Sabes que tu corazón

Conmigo te hace bam bam
               A
Sabes que esa beba

Está buscando de mi bam bam
                  Bm
Ven prueba de mi boca

Para ver como te sabe
                 G
Quiero quiero quiero

Ver cuanto amor a ti te cabe
                D
Yo no tengo prisa yo

Me quiero dar el viaje
           A
Empecemos lento

Después salvaje

[Pré-Refrão]

 Bm
Pasito a pasito, suave suavecito
             G
Nos vamos pegando, poquito a poquito
                 D
Y es que esa belleza es un rompecabezas
               A
Pero pa montarlo aquí tengo la piesa
 Bm
Pasito a pasito, suave suavecito
             G
Nos vamos pegando, poquito a poquito
                 D
Y es que esa belleza es un rompecabezas
               A
Pero pa montarlo aquí tengo la pieza

[Refrão]

      Bm             
Despacito, quiero respirar
                G
Tu cuello despacito
                           D
Deja que te diga cosas al oído

Para que te acuerdes
                A
Si no estás conmigo
      Bm            
Despacito quiero desnudarte
              G
A besos despacito

Firmo en las paredes
           D
De tu laberinto

Y hacer de tu cuerpo
           A
Todo un manuscrito

Sube sube

Sube, sube, sube

[Ponte]

  Bm
Quiero ver bailar tu pelo
                  G
Quiero ser tu ritmo
                     D
Que le enseñes a mi boca
                 A
Tus lugares favoritos
 Bm                
Déjame sobrepasar
                G
Tus zonas de peligro
                     D
Hasta provocar tus gritos
                      A
Y que olvides tu apellido

[Refrão Final]

      Bm
Despacito

Vamos a hacerlo en
                     G
Una playa en Puerto Rico

Hasta que las olas
              D
Griten Ay Bendito

Para que mi sello
             A
Se quede contigo

 Bm
Pasito a pasito

Suave suavecito
             G
Nos vamos pegando

Poquito a poquito
                  D
Que le enseñes a mi
                    A
Boca Tus lugares favoritos
 Bm
Pasito a pasito, suave suavecito
             G
Nos vamos pegando, poquito a poquito
                 D       
Hasta provocar tus gritos
                      A
Y que olvides tu apellido
Composición de Erika Ender / Luis Fonsi
37.424 vistas
  • Simplificar cifrado
    • ½ Tono
    • Am
    • Bbm
    • Bm
    • Cm
    • C#m
    • Dm
    • Ebm
    • Em
    • Fm
    • F#m
    • Gm
    • G#m
  • Agregar a la lista

    0 comentarios

    Ver todos los comentarios

    ¿Lograste tocar?

    142 Tocaron 30 Aún no

    ¡Graba un video tocando Despacito y envíanoslo!

    00:00 / 00:00
    Otros videos de esta canción
    Repetir Calidad Automático
    Otros videos de esta canción
    00:00 / 00:00
    Automático
    Capítulos
    • Tocando a música
    • Apresentação / Equipamentos
    • Acordes da Introdução 1
    • Tocando Introdução 1
    • Introdução: Parte 1
    • Introdução: Parte 1 - Parte 1 de 3
    • Introdução: Parte 1 - Parte 2 de 3
    • Introdução: Parte 1 - Parte 3 de 3
    • Acordes da Introdução 2
    • Tocando Introdução 2
    • Introdução: Parte 2
    • Introdução: Parte 2 - Parte 1 de 4
    • Introdução: Parte 2 - Parte 2 de 4
    • Introdução: Parte 2 - Parte 3 de 4
    • Introdução: Parte 2 - Parte 4 de 4
    • Acordes Introdução 3
    • Introdução: Parte 3
    • Introdução: Parte 3 - Parte 1 de 3
    • Introdução: Parte 3 - Parte 2 de 3
    • Introdução: Parte 3 - Parte 3 de 3
    • Acordes Primeira Parte
    • Tocando Primeira Parte
    • Ensinando Ritmo 1
    • Acordes Pré-Refrão
    • Tocando Pré-Refrão
    • Ensinando Pré-Refrão
    • Pré-Refrão - Parte 1 de 2
    • Pré-Refrão - Parte 2 de 2
    • Acordes Refrão
    • Tocando Refrão
    • Ensinando Ritmo 2 (principal)
    • Dicas Segunda Parte
    • Tocando Segunda Parte
    • Dicas Terceira Parte
    • Tocando Terceira Parte
    • Dicas Quarta Parte
    • Tocando Quarta Parte
    • Dicas Finais
    • Tocando trecho final
    • Encerramento
    OK