Cifra Club

Quien te dijo eso?

Luis Fonsi

Cifrado: Principal (guitarra y guitarra eléctrica)
tono: E
INTRO:

  E             A               E            A
E|------------------------------|-------------------------|
B|-------------------------2----|-------------------------|
G|---------1------------2-----2-|---------1----------2----|
D|-----2------2------2----2-----|-----2-----2-----2----2--|
A|---2---2--------0-------------|---2---2------0----------|
E|-0----------------------------|-0-----------------------|

  E                                     A
   Quién te dijo que yo me olvide de ti,
F#m                             E              F#
   que me duermo tranquilo y jamás sueño contigo?
  E                                    A
   ¿que pasé de todo, quién te dijo eso?
              F#m                            G#m
   si cuando el cielo se enfurece vienes vestida de lluvia
C#m                   B            A              E
   y cuando el sol desaparece llegas plateada de luna

 E                                        A
  ¿quién te dijo que yo ya no pienso en ti,
F#m                    E                     F#
 que es historia pasada el amor que me dabas?
 E                                    A
 ¿que pasé de todo, quien te dijo eso?
F#m                                     G#m
 si cuando el viento entra los gritos reconozco tus palabras
C#m                         B          A
 y cuando el fuego va apagándose tu cuerpo se me escapa

CORO:
 E                 A
 ¿quién te dijo eso?
 G#m                 C#m
 no les creas que ya no te quiero
       B                     A
 ¡ay cuánto, cuánto te mintieron!
 E                 A
 ¿quién te dijo eso?
 F#m                       A
 si me queda una casa vacía
 F#                          E
 si me falta un pedazo de cielo
                     A
 ¿ay quién te dijo eso?

  F#m           B
E|--------------------------|
B|--------------------------|
G|-0--2-3--2--0-------------|
D|---------------3--3/5-----|
A|--------------------------|
E|--------------------------|

 se repiten los mismos acordes:
 E                                    A
 ¿quién te dijo que yo no luché por ti,
 F#m                       E                  F#
 que bajé los brazos dejando entrar al fracaso?
 E                                    A
 ¿que pasé de todo, quién te dijo eso?
 F#m                                  G#m
 si estoy quemándome en el hielo traicionero de tu frío
 C#m                 B             A
 si de tanto que te lloro como un loco me rio

CORO:
 E                 A
 ¿quién te dijo eso?
 G#m                 C#m
 no les creas que ya no te quiero
       B                     A
 ¡ay cuánto, cuánto te mintieron!
 E                 A
 ¿quién te dijo eso?
 F#m                       A
 si me queda una casa vacía
 F#                          E
 si me falta un pedazo de cielo

 G#m
 Se me acorta la vida
 C#m
 se me muere la esperanza
 B
 ya no puedo hacer nada
 A
 nada me alcanza
 G#m                    C#m
 yo solamente quisiera que el mundo no te mintiera
 B
 y supieras que estoy deseperado
 A                                      F#m
 como un pez que se ahoga en su propio mar

CORO:
 E                 A
 ¿quién te dijo eso?
 G#m                 C#m
 no les creas que ya no te quiero
       B                     A
 ¡ay cuánto, cuánto te mintieron!
 E                 A
 ¿quién te dijo eso?
 F#m                       A
 si me queda una casa vacía
 F#                          E
 si me falta un pedazo de cielo
                     A
 ¿ay quién te dijo eso?

E|-13-------------------------------13-------------------------|
B|---13--------------------------------13----------------------|
G|-----14-15-14---------------------------14--15-14------------|
D|-------------------------------------------------------------|
A|-------------------------------------------------------------|
E|-------------------------------------------------------------|

E|-----------------------13/15-17----------------------17/18/17|
B|----------------13/15----------------------------------------|
G|-------------------------------------------------------------|
D|-------------------------------------------------------------|
A|-------------------------------------------------------------|
E|-------------------------------------------------------------|
Composición de Claudia Brant / Luis Fonsi
Colaboración y revisión:
  • Lucas Kappaun
  • Glaufer Charão
  • Jucilene Santos
4.849 vistas
    • ½ Tono
    • A
    • Bb
    • B
    • C
    • Db
    • D
    • Eb
    • E
    • F
    • F#
    • G
    • Ab
  • Agregar a la lista

    0 comentarios

    Ver todos los comentarios

    ¿Lograste tocar?

    0 Tocaron 0 Aún no

    ¡Graba un video tocando Quien te dijo eso? y envíanoslo!

    00:00 / 00:00
    Outros vídeos desta música
    Repetir Calidad Automático
    Outros vídeos desta música
    00:00 / 00:00
    Automático
    OK