Cifra Club

Se supone

Luis Fonsi

Cifrado: Principal (guitarra y guitarra eléctrica)
tono: C
Introduccion:
                __          _
               (  )        ( )
E|-0-0-0--5--5--5--7--0-0-0-0-2-0--|
B|-2-2-2--------------3-3-3-3---3--|
G|-2-2-2--------------2-2-2-2------|
D|-2-2-2--------------0-0-0--------|
A|---------------------------------|
E|---------------------------------|

E|-0-0-0-------------5--0--|
B|-2-2-2------0-2-3--------|
G|-2-2-2----2--------------|
D|-2-2-2--2----------------|
A|-------------------------|
E|-------------------------|

Versos:

        Pasare por ti esta noche
E|-0-0-0---------------------0-0-0--|
B|-2-2-2---------------------3-3-3--|
G|-2-2-2---------------------2-2-2--|
D|-2-2-2---------------------0-0-0--|
A|----------------------------------|
E|----------------------------------|
       Ya conozco de memoria el camino hacia la casa
E|----------------------------------------------------|
B|-0-0-0----------------2-----------2--------------2--|
G|-1-1-1----------------2-----------2--------------2--|
D|-2-2-2----------------2-----------2--------------2--|
A|-2-2-2----------------------------------------------|
E|-0-0-0----------------0-----------4--------------2--|
 Donde fui feliz un dia      y hoy soy una visita mas
E|--------------------2--2--0------------------------|
B|-------2------------0--0--3------------------------|
G|-------2------------2--2--2------------------------|
D|-------2------------1--1--0------------------------|
A|---------------------------------------------------|
E|-------0-------------------------------------------|

(Justo cuando termina 'una visita mas' va esto)
                    __    __
                   (  )  (  )
E|-4-----4-5-----5--5--7--5--4--0---|
B|-----5---5---5------------------0-|
G|---4-----4-4----------------------|
D|----------------------------------|
A|----------------------------------|
E|-0--------------------------------|

(El segundo verso va igual que el primero pero en vez
 de al final tocar esta ultima parte del primer verso
 se toca en E  un arpegio cualquiera es facil porque
 se te da el acorde y solo tienes que jugar con el
 yo lo toco asi)

E|--------0---------------------|
B|------0---0-------------------|
G|----1-------1-----------------|
D|--2---------------------------|
A|------------------------------|
E|------------------------------|

( es una conexion entre el verso y el coro)

Coro:

C                 G
Se supone que por ti no sienta nada
Am             Am/G      F   F/E
Que el pasado no me pesa ya
Dm                              C
Se supone que es muy facil repetir que bien me va
            F                 G
Aunque muy dentro me este muriendo
C                G
Se supone que mejor fue separarnos
Am           Am/G       F   F/E
Que la vida debe continuar
Dm                               C
Se supone que ya no me importe quien te besara
           F            G                     F
Esa es mi pena por suponer que te podria olvidar
                     G                       C
Me despido en el portal y me trago de un suspiro
      Am
Las palabras.
                    F                    Dm
Tu ya tienes otro amor yo regreso a mi dolor
                  Bb                    A
Yo regreso a mi dolor Yo no tengo nada mas

(aqui le suben medio tono y el coro va asi)

D                  A
Se supone que por ti no sienta nada
Bm           Bm/A        G  G/F#
Que el pasado no me pesa ya
      Em                        D
Se supone que es muy facil repetir que bien me va
            G                 A
Aunque muy dentro me este muriendo
D                A
Se supone que mejor fue separarnos
Bm           Bm/A      G   G/F#
Que la vida debe continuar
     Em                          D
Se supone que ya no me importe quien te besara
           G            A             G       D
Esa es mi pena por suponer que te podria olvidar
Composición de Claudia Brant, Luis Fonsi
37 vistas
    • ½ Tono
    • A
    • Bb
    • B
    • C
    • Db
    • D
    • Eb
    • E
    • F
    • F#
    • G
    • Ab
  • Agregar a la lista

    0 comentarios

    Ver todos los comentarios

    ¿Lograste tocar?

    0 Tocaron 0 Aún no

    ¡Graba un video tocando Se supone y envíanoslo!

    00:00 / 00:00
    Outros vídeos desta música
    Repetir Calidad Automático
    Outros vídeos desta música
    00:00 / 00:00
    Automático
    OK