Cifra Club

Amor, Amor, Amor

Luis Miguel

Cifrado: Principal (guitarra y guitarra eléctrica)
tono: Dm
E|--1-1-----------| I--------------------------------I
B|------1-1-------| I--------3--------1---------0-1--I
G|-----------2-2--| I----0-2------0-2-------0-2------I
D|----------------| I--3--------3---------3----------I
A|----------------| I--------------------------------I
E|----------------| I--------------------------------I

E|--3-3----------| I---------------0-------------------I
B|------3-3------| I--------1----3---3-1------1--------I
G|----------3-3--| I--0-2-3-----------------2---2-0----I
D|---------------| I--------------------------------3--I
A|---------------| I-----------------------------------I
E|---------------| I-----------------------------------I

E|-----0-----0-0-1-0------------------------0-----------| I
B|-------1-3---------3-3-1-0------3-0-1-3-2---3-1-1-0---| I
G|----------------------------------------------------2-| I
D|--2--------------------------2------------------------| I
A|------------------------------------------------------| I
E|------------------------------------------------------| I

E|---3-0-1-3-3-1-0-1-1-0--------1---0-1---0-1-3-0-----| I
B|-----------------------3--------3-----3---------3-1-| I
G|-0--------------------------0-----------------------| I
D|----------------------------------------------------| I
A|----------------------------------------------------| I
E|----------------------------------------------------| I

E|--1-1-----------| I--------------------------------I
B|------1-1-------| I--------3--------1---------0-1--I
G|-----------2-2--| I----0-2------0-2-------0-2------I
D|----------------| I--3--------3---------3----------I
A|----------------| I--------------------------------I
E|----------------| I--------------------------------I

E|--3-3----------| I---------------0-------------------I
B|------3-3------| I--------1----3---3-1------1--------I
G|----------3-3--| I--0-2-3-----------------2---2-0----I
D|---------------| I--------------------------------3--I
A|---------------| I-----------------------------------I
E|---------------| I-----------------------------------I
00:00 / 00:00
Otros videos de esta canción
Repetir
Otros videos de esta canción
Composición de Gabriel Ruíz / Ricardo Lopez Mendez
1.295 exhibiciones
    • ½ Tono
    • Am
    • Bbm
    • Bm
    • Cm
    • C#m
    • Dm
    • Ebm
    • Em
    • Fm
    • F#m
    • Gm
    • G#m
  • Agregar a la lista
    00:00 / 00:00
    OK