Cifra Club

Cómo

Luis Miguel

Cifrado: Principal (guitarra y guitarra eléctrica)
tono: C#m
E|-------------|-----------------|---------------|-----------------|
B|----3-3-2-2--|--------3-3-2-2--|----3-3-2-2----|--------3-3-2-2--|
G|-------------|-----------------|---------------|-----------------|
D|--2----------|--1-2-3----------|--4---------4--|--3-4-5----------|
A|-------------|-----------------|---------------|-----------------|
E|-------------|-----------------|---------------|-----------------|

E|-------------|-------------|-------------|-------------------|
B|----5-5-3-3--|----3-3-2-2--|----2-2-0-0--|----------1-1-0-0--|
G|-------------|-------------|-------------|--2-1--------------|
D|--4----------|--2----------|--4----------|------4-3----------|
A|-------------|-------------|-------------|-------------------|
E|-------------|-------------|-------------|-------------------|

E|-------------|-----------------|---------------|-----------------|
B|----3-3-2-2--|--------3-3-2-2--|----3-3-2-2----|--------3-3-2-2--|
G|-------------|-----------------|---------------|-----------------|
D|--2----------|--1-2-3----------|--4---------4--|--3-4-5----------|
A|-------------|-----------------|---------------|-----------------|
E|-------------|-----------------|---------------|-----------------|

E|-------------|----------2-2-0-0--|-------------|----------|
B|----5-5-3-3--|--2-0--------------|----3-3-2-2--|--0-------|
G|-------------|------2-1----------|-------------|---2-1-2--|
D|--4----------|-------------------|--4----------|----------|
A|-------------|-------------------|-------------|----------|
E|-------------|-------------------|-------------|----------|
00:00 / 00:00
Otros videos de esta canción
Repetir
Otros videos de esta canción
Composición de Juan Carlos Calderón
79 exhibiciones
    • ½ Tono
    • Am
    • Bbm
    • Bm
    • Cm
    • C#m
    • Dm
    • Ebm
    • Em
    • Fm
    • F#m
    • Gm
    • G#m
  • Agregar a la lista
    00:00 / 00:00
    OK