Cifra Club

La Barca

Luis Miguel

Chords: Principal (acoustic and electric guitars)
tone: D
[Intro] Fm7  Bb  Eb  Fm7  Gm7    Fm7  G#m7  Gm7  F#m7  Fm7  Bb

E|-----------------------------/18-18-18-18----20-18-16--15-16-18-20\-15----------------|
B|---13/16-16---13-16-14-13-14-/18-------------17-17-17-77--17-17-17--13----------------|
G|-14------17---14-17-15-14-15----------------------------------------------------------|
D|--------------------------------------------------------------------------------------|
A|--------------------------------------------------------------------------------------|
E|--------------------------------------------------------------------------------------|

E|-11-13-15-11-13-15-11-13-15-11-13--15-18-16--15-13-15-76--76-/18-------13-------13----|
B|-13-13-13-13-13-14-14-14-14-14-14-76--16-16-76--15-15--15--15----------14-14-16-14----|
G|--------------------------------------------------------------------------15-17-------|
D|--------------------------------------------------------------------------------------|
A|-----------------------------------------------------------------14-15----------------|
E|--------------------------------------------------------------------------------------|

E|-------13-------13-14--15-16-------16-------16-------16-----18---15-16----------------|
B|-14-16-14-14-16-14-15-76--17-17-19-17-17-19-17-17-19-17---16----76--16----------------|
G|-15-17----15-17--------------18-18----18-18----18-18----17----------------------------|
D|--------------------------------------------------------------------------------------|
A|--------------------------------------------------------------------------------------|
E|--------------------------------------------------------------------------------------|

E|-18--15-16-77---14-15-77--14-15-76--13-11-9--12---12-11-9-/11-11----------------------|
B|-16-76--16--15--15-15--15-15-15--14-14-13-11-14---14-12-11/13-13----------------------|
G|--------------------------------------------------------------------------------------|
D|--------------------------------------------------------------------------------------|
A|--------------------------------------------------------------------------------------|
E|--------------------------------------------------------------------------------------|

[Primeira Parte]

 Eb                           Fm7
Dicen que la distancia es el olvido
 Bb                       Eb  Fm7
Pero yo no concibo esa razón
 F#m7                         Fm7
Porque yo seguiré siendo el cautivo
 Bb                       Eb   G7
De los caprichos de tu corazón
   Cm7          G7           Cm7
Supiste esclarecer mis pensamientos
                F7           Bb  Bb
Me diste la verdad que yo soñé
                             Ab
Ahuyentaste de mi los sufrimientos
Fm7            Ab          G7
En la primera noche que te amé

[Segunda Parte]

 Ab                           F#m6   Db
Hoy mi playa se viste de amargura
 Gm7                          C7/9
Porque tu barca tiene que partir
Fm7                        Bb
A cruzar otros mares de locura
  Eb              Db          C7
Cuida que no naufrague en tu vivir
 Fm                             G#m7   Db
Cuando la luz del sol se esté apagando
       Gm7               C7/9
Y te sientas cansada de vagar
 Fm7                             Bb
Piensa que yo por ti estaré esperando
 F7             Bb       Eb
Hasta que tú decidas regresar

( Fm7  Bb  Eb  Fm7  Gm7    Fm7  G#m7  Gm7  F#m7  Fm7  Bb )

[Terceira Parte]

 Cm7          G7             Cm7
Supiste esclarecer mis pensamientos
                F7           Bb    Bb
Me diste la verdad que yo soñé
                             Ab
Ahuyentaste de mi los sufrimientos
Fm7            Ab        G7
En la primera noche que te amé
 Ab                        F#m6    Db
Hoy mi playa se viste de amargura
 Gm7                        C7/9
Porque tu barca tiene que partir
Fm7                        Bb
A cruzar otros mares de locura
  Eb              Db          C7
Cuida que no naufrague en tu vivir
 Fm7                              G#m7   Db
Cuando la luz del sol se esté apagando
       Gm7               C7/9
Y te sientas cansada de vagar
 Fm7                              Bb
Piensa que yo por ti estaré esperando
  F7                       Eb     Eb
Hasta que tú decidas regresar
00:00 / 00:00
Other videos of this song
Repeat
Other videos of this song
Composed by Roberto Cantoral
Collaboration and Review:
18.457 views
  • Simplify chords
    • ½ Tone
    • A
    • Bb
    • B
    • C
    • Db
    • D
    • Eb
    • E
    • F
    • F#
    • G
    • Ab
  • Add to list
    00:00 / 00:00
    OK