Cifra Club

La Barca

Luis Miguel

Cifrado: Principal (guitarra y guitarra eléctrica)
Selo Cifra Club: esta cifra foi revisada para atender aos critérios oficiais da nossa Equipe de Qualidade.
tono: Eb
[Intro] C7/E  Fm7  Bb7  
        Eb7M  Fm7  Gm7 
          Fm7  G#m7  Gm7 
        F#m7  Fm7  Bb7

[Tab - Intro]

E|---------------------------------13-13-13-|
B|---8/11-11---8-11--9--8-9---9/13----------|
G|-9---12-12---9-12-10--9-10-10/13----------|
D|------------------------------------------|
A|------------------------------------------|
E|------------------------------------------|

E|-15-13--11-10-11-13-15-10-----------------|
B|-12-12--12-12-12-12-12-8------------------|
G|------------------------------------------|
D|------------------------------------------|
A|------------------------------------------|
E|------------------------------------------|

E|-6-8-10-6-8--10-6-8-10-6-8--10-13-11-10---|
B|-8-8-8--8-8--9--9-9-9--9-9--11-11-11-11---|
G|------------------------------------------|
D|------------------------------------------|
A|------------------------------------------|
E|------------------------------------------|

E|-8--10-11-11/13---------------------------|
B|-10-10-10-10------------------------------|
G|------------------------------------------|
D|------------------------------------------|
A|------------------------------------------|
E|------------------------------------------|

E|------8-------8-------8-------8-9--10-----|
B|------9-9--11-9-9--11-9-9--11-9-10-11-----|
G|--------10-12---10-12---10-12-------------|
D|-9-10-------------------------------------|
A|------------------------------------------|
E|------------------------------------------|

E|-11-------11-------11-------11-----13-----|
B|-12-12-14-12-12-14-12-12-14-12--11--------|
G|----13-13----13-13----13-13---------------|
D|------------------------------------------|
A|------------------------------------------|
E|------------------------------------------|

E|-10-11-13-10-11-12------------------------|
B|-11-11-11-11-11-10------------------------|
G|------------------------------------------|
D|------------------------------------------|
A|------------------------------------------|
E|------------------------------------------|

E|-9--10-12-9--10-11--8-6-4-7---7-6-4-6h8p6-|
B|-10-10-10-10-10-9---9-8-6-9---9-8-6-8-----|
G|------------------------------------------|
D|------------------------------------------|
A|------------------------------------------|
E|------------------------------------------|

[Primeira Parte]

 Eb                           Fm7
Dicen que la distancia es el olvido
 Bb            Fm7  Bb7(13-)  Eb7M  Fm7
Pero yo no concibo  esa    razón
 Eb                        Fm7
Porque yo seguiré siendo el cautivo
    Bb           Fm7     
De los caprichos     de
 Bb7(13-)  Eb7M  G7(9-)
Tu    corazón

[Pré-Refrão]

   Cm7          Dm7(5-)  G7    Cm7
Supiste esclarecer  mis pensamientos
                             Bb 
Me diste la verdad que yo soñé
                             Ab
Ahuyentaste de mi los sufrimientos
               Ab7(11+)      G7(4)  G7
En la primera noche que te amé

[Refrão]

 Ab                           Abº  
Hoy mi playa se viste de amargura
 Gm7                       C7(9/11+)
Porque tu barca tiene que partir
Fm7                        Bb 
A cruzar otros mares de locura

( Fm7  Bb7(13-) )

  Eb7M            Db7           C7  
Cuida que no naufrague en tu vivir

( C7(4)  C7 )

  Fm7                             Abº 
Cuando la luz del sol se esté apagando
       Gm7               C7(9)
Y te sientas cansada de vagar
  Fm7                             Bb
Piensa que yo por ti estaré esperando
                Bb7(4/9)  Eb   C7/E
Hasta que tú decidas  regresar

[Solo] Fm7  Bb7  Eb7M  Fm7  Gm7 
         Fm7  G#m7  Gm7 
       Dm7(5-)  G7(13-) 

[Tab - Solo]

E|---------------------------------13-13-13-|
B|---8/11-11---8-11--9--8-9---9/13----------|
G|-9---12-12---9-12-10--9-10-10/13----------|
D|------------------------------------------|
A|------------------------------------------|
E|------------------------------------------|

E|-15-13--11-10-11-13-15-10-----------------|
B|-12-12--12-12-12-12-12-8------------------|
G|------------------------------------------|
D|------------------------------------------|
A|------------------------------------------|
E|------------------------------------------|

E|-6-8-10-6-8--10-6-8-10-6-8--10-13-11-10---|
B|-8-8-8--8-8--9--9-9-9--9-9--11-11-11-11---|
G|------------------------------------------|
D|------------------------------------------|
A|------------------------------------------|
E|------------------------------------------|

E|-8--10-11-11/13---------------------------|
B|-10-10-10-10------------------------------|
G|------------------------------------------|
D|------------------------------------------|
A|------------------------------------------|
E|------------------------------------------|

E|------8-------8-------8-------8-9--10-----|
B|------9-9--11-9-9--11-9-9--11-9-10-11-----|
G|--------10-12---10-12---10-12-------------|
D|-9-10-------------------------------------|
A|------------------------------------------|
E|------------------------------------------|

E|-11-------11-------11-------11-----13-----|
B|-12-12-14-12-12-14-12-12-14-12--11--------|
G|----13-13----13-13----13-13---------------|
D|------------------------------------------|
A|------------------------------------------|
E|------------------------------------------|

E|-------------10-13-12-11-10---------------|
B|----------11----------------13------------|
G|-12-11-12---------------------------------|
D|------------------------------------------|
A|------------------------------------------|
E|------------------------------------------|

E|-10-11-10-9-10-13-12-11----10-------------|
B|------------------------------------------|
G|------------------------------------------|
D|------------------------------------------|
A|------------------------------------------|
E|------------------------------------------|

[Pré-Refrão]

   Cm7          Dm7(5-)  G7     Cm7
Supiste esclarecer      mis pensamientos
                             Bb 
Me diste la verdad que yo soñé
                             Ab
Ahuyentaste de mi los sufrimientos
               Ab7(11+)      G7(4)  G7
En la primera noche que te amé

[Refrão]

 Ab                           Abº  
Hoy mi playa se viste de amargura
 Gm7                       C7(9/11+)
Porque tu barca tiene que partir
Fm7                        Bb  
A cruzar otros mares de locura

( Fm7  Bb7(13-) )

  Eb7M            Db7           C7  
Cuida que no naufrague en tu vivir
  Fm7                             Abº 
Cuando la luz del sol se esté apagando
       Gm7               C7(9)
Y te sientas cansada de vagar
  Fm7                             Bb
Piensa que yo por ti estaré esperando
                Bb7(4/9)  Eb  
Hasta que tú decidas  regresar
 Ab             Abm6       Eb7M  Eb7(11+) 
Hasta que tú decidas regresar
Otros videos de esta canción
    42.879 exhibiciones
    • Simplificar cifrado
      • ½ Tono
      • A
      • Bb
      • B
      • C
      • Db
      • D
      • Eb
      • E
      • F
      • F#
      • G
      • Ab
    • Agregar a la lista

    Afinação da cifra

    Afinador online

      Ops (: Contenido disponible solo en portugués.
      OK