Enviar cifraEntrar

Asa Branca

Luiz Gonzaga

Acordes: Principal
reproducciones 1.350
Tono: C
Introdução:


   G
E|---1---0----------------------------------|
B|-0---3---1-3-0-1---0-----------0----------|
G|-0---------------2---0-2-0---0-0----------|
D|-0-------------------------2---0----------|
A|------------------------------------------|
E|-3-----------------------------3----------|


E|-1---0------------------------------------|
B|---3---1-3-0-1---0------------------------|
G|---------------2---0-2-0---0--------------|
D|-------------------------2----------------|
A|------------------------------------------|
E|-3---3---3---3---3---3---3----------------|


   G     G/F   G     G/F   G     G/F
E|------------------------------------------|
B|-0---0----0--0---0----0--0---0----0-------|
G|-0---0----0--0---0----0--0---0----0-------|
D|-0---0----0--0---0----0--0---0----0-------|
A|------------------------------------------|
E|-3-----1-----3-----1-----3-----1----------|


E|------------------------------------------|
B|---0-0----0-------------------------------|
G|---0-0----0-------------------------------|
D|---0-0----0-------------------------------|
A|------------------------------------------|
E|-1-----1----------------------------------|



G                        C
  Quando oiei a terra ardendo
         G     D7/F#   G
Qual fogueira de São João
      G7                C
Eu perguntei a Deus do céu, ai
          D7          G
Por quê tamanha judiação
      G7                C
Eu perguntei a Deus do céu, ai
          D7          G   (Passagem)
Por quê tamanha judiação

Passagem:

   G
E|---1---0--------------------------------|
B|-0--3----1-3-0-1---0------------0-------|
G|-0---------------2---0-2-0---0--0-------|
D|-0-------------------------2----0-------|
A|----------------------------------------|
E|-3------------------------------3-------|


                      C
Que braseiro, que fornaia
        G      D7/F#  G
Nem um pé de pran-ta-ção
            G7              C
Por farta d'água perdi meu gado
           D7           G
Morreu de sede, meu alazão

            G7              C
Por farta d'água perdi meu gado
           D7           G  (Passagem)
Morreu de sede, meu alazão

Passagem:

   G
E|---1---0--------------------------------|
B|-0--3----1-3-0-1---0------------0-------|
G|-0---------------2---0-2-0---0--0-------|
D|-0-------------------------2----0-------|
A|----------------------------------------|
E|-3------------------------------3-------|


G                    C
  Inté mesmo a asa branca
        G      D7/F#  G
Bateu asas do sert----ão
          G7             C
Então eu disse, adeus Rosinha
           D7           G
Guarda contigo meu coração

          G7             C
Então eu disse, adeus Rosinha
           D7           G   (Passagem)
Guarda contigo meu coração

Passagem:

   G
E|---1---0--------------------------------|
B|-0--3----1-3-0-1---0------------0-------|
G|-0---------------2---0-2-0---0--0-------|
D|-0-------------------------2----0-------|
A|----------------------------------------|
E|-3------------------------------3-------|


G                     C
  Hoje longe, muitas légua
       G     D7/F#  G
Numa triste so-li--dão
           G7           C
Espero a chuva cair de novo
            D7             G
Pra mim voltar pro meu sertão

           G7           C
Espero a chuva cair de novo
            D7             G   (Passagem)
Pra mim voltar pro meu sertão

Passagem:

   G
E|---1---0--------------------------------|
B|-0--3----1-3-0-1---0------------0-------|
G|-0---------------2---0-2-0---0--0-------|
D|-0-------------------------2----0-------|
A|----------------------------------------|
E|-3------------------------------3-------|


                        C
Quando o verde dos teus óio
       G        D7/F#  G
Se espaiar na pran-ta-ção
           G7             C
Eu te asseguro não chore não, viu?
           D7                  G
Que eu voltarei, viu, meu coração

           G7             C
Eu te asseguro não chore não, viu?
           D7                  G    (Passagem 2x)
Que eu voltarei, viu, meu coração

Passagem:

   G
E|---1---0--------------------------------|
B|-0--3----1-3-0-1---0------------0-------|
G|-0---------------2---0-2-0---0--0-------|
D|-0-------------------------2----0-------|
A|----------------------------------------|
E|-3------------------------------3-------|


Final:

   G     G/F   G     G/F   G     G/F
E|------------------------------------------|
B|-0---0----0--0---0----0--0---0----0-------|
G|-0---0----0--0---0----0--0---0----0-------|
D|-0---0----0--0---0----0--0---0----0-------|
A|------------------------------------------|
E|-3-----1-----3-----1-----3-----1----------|


( F/A  G )
  • 1
  • 2
  • 3
  • 4
  • 5
  • 6
  • 7
  • 8
  • 9
  • 10
  • 11
  • 12

    0 comentarios

      mostrar mas comentarios

      ¿Conseguiste tocar?

      115tocaron5aún no

      ¡Grave un vídeo tocando Asa Branca y envie para nosotros!

      00:00 / 00:00
      outros vídeos desta música
      repetirqualidadeautomática
      • automática
      Outro vídeos desta música
        Capítulos
        • Início
        • Acordes do solo da introdução
        • Tocando a introdução
        • Ensinando a introdução (parte 1)
        • Ensinando a introdução (parte 2)
        • Ensinando a introdução (parte 3)
        • Acordes da música
        • Tocando trecho da música
        • Ensinando o ritmo da música
        • Dicas e acordes pra parte final (cadência)
        • Tocando final
        • Dicas de ritmo e acordes para música
        • Tocando trecho da música (2º ritmo)
        • Ensinando o 2º ritmo
        • Dicas
        • Tocando solo - em intervalos de 6ª
        • Ensinando o solo (parte 1)
        • Ensinando o solo (parte 2)
        • Encerramento
        • Extras
        00:00 / 00:00
        automática
        • automática
        cerrarplay/pause subir/bajar velocidad
          acordes
          cerrar
          OK
          Feedback