Cifra Club

Apenas Mais Uma de Amor

Lulu Santos

Cifrado: Principal (guitarra y guitarra eléctrica)
Selo Cifra Club: esta cifra foi revisada para atender aos critérios oficiais da nossa Equipe de Qualidade.
tono: Em
[Tab - Intro]

Parte 1 de 4
E|----7-7-7-7-7-----7-7-7-7-7---------------|
B|----3-3-3-3-3-----3-3-3-3-3---------------|
G|-0--0-0-0-0-0--0--0-0-0-0-0---------------|
D|------------------------------------------| (2x)
A|------------------------------------------|
E|------------------------------------------|
   ↓  ↓ ↓ ↑ ↓ ↑   ↓   ↓ ↓ ↑ ↓ ↑ 

Parte 2 de 4
E|----7-7-7-----10-10-10-10-10--------------|
B|----3-3-3-----6--6--6--6--6---------------|
G|-0--0-0-0-0---0--0--0--0--0---------------|
D|------------------------------------------|
A|------------------------------------------|
E|------------------------------------------|
   ↓   ↓ ↓ ↑ ↓   ↓  ↓  ↑   ↓  ↑

E|----8-8-8-8-8----8------------------------|
B|----5-5-5-5-5----4------------------------|
G|-0--0-0-0-0-0-0--0------------------------|
D|------------------------------------------|
A|------------------------------------------|
E|------------------------------------------|
   ↓   ↓ ↓ ↑ ↓ ↑ ↓  ↓ 

Parte 3 de 4
E|-7-7-7-7-7----6-6-6-6-6-------------------|
B|-3-3-3-3-3----2-2-2-2-2-------------------|
G|-0-0-0-0-0-0--0-0-0-0-0-0-----------------|
D|------------------------------------------|
A|------------------------------------------|
E|------------------------------------------|
   ↓ ↓ ↑ ↓ ↑  ↓  ↓ ↓ ↑ ↓ ↑  ↓

Parte 4 de 4
E|----5-5-5-5-5-5-5-5--3---2---2------------|
B|----1-1-1-1-1-1-1-1--1-1-1-1-1------------|
G|----0-0-0-0-0-0-0-0--0-0-0-0-0------------|
D|-0----------------------------------------|
A|------------------------------------------|
E|------------------------------------------|
   ↓   ↓ ↓ ↑ ↓ ↑ ↓ ↑ ↓   ↑ ↓ ↑ ↓ ↑

E|-----3-3-3-3-3-3--------------------------|
B|-----1-1-1-1-1-1--------------------------|
G|-----0-0-0-0-0-0--------------------------|
D|-0-------------0--------------------------|
A|------------------------------------------|
E|------------------------------------------|
   ↓   ↓ ↓ ↑ ↓  ↑ ↓

[Primeira Parte]

[Tab - Primeira Parte]

Parte 1 de 2
   G                   C9
E|-7-7-7-7----5-3-3-2----3-3-3-2-2-0-0-2----|
B|-3-3-3-3----3-3-3------3-3-3-3-3-3-3-3----|
G|-0-0-0-0--0-0-0-0------0-0-0-0-0-0-0-0----|
D|-0-0-0-0--0-------------------------------|
A|---------------------3--------------------|
E|------------------------------------------|
   ↓  ↓ ↑ ↓  ↓ ↑ ↑ ↑ ↑   ↓ ↓ ↑ ↓ ↓  ↑ ↑ ↑ ↑

Parte 2 De 2
   G/B              D4  D   D9  
                               H.N.
E|---3-3-3-2-2-0-0--3---2-2-0---------------|
B|---3-3-3-3-3-3-3--3---3-3-3--7------------|
G|---0-0-0-0-0-0-0--2---2-2-2--7------------|
D|------------------0---0-0-0--7------------|
A|-2----------------------------------------|
E|------------------------------------------|
   ↓  ↓ ↑ ↓ ↓ ↑ ↑ ↓   ↓   ↓ ↑ ↑  ↓ 

    G
Eu gosto tanto de você
      C9
Que até prefiro esconder
G/B                            D4  D  
    Deixo assim ficar subentendi__do

[Segunda Parte]

           Am      G/B  C     
Como uma ideia que e___xiste 
 D    G      D5(9)
Na cabeça e não
        Am       G/B  C     
Tem a menor obriga___ção
 D   G   C9  G  C9  G
De acontecer

[Primeira Parte]

   G
Eu acho tão bonito isso
C9
   De ser abstrato, baby
G/B                       D4  D  
    A beleza é mesmo tão fu__gaz

[Segunda Parte]

           Am      G/B  C     
Como uma ideia que e___xiste 
 D    G      D5(9)
Na cabeça e não
         Am     G/B  C     
Tem a menor preten__são 
     D    G  C9  G
De acontecer

[Refrão]

C9               D
   Pode até parecer fraqueza
          G       F6(9)   C9  G/B
Pois que seja fraqueza então
Am7             G4/B  C
    A alegria que me dá
      D            G  G7M  G7
Isso vai sem eu dizer

C                    D
  Se amanhã não for nada disso
     G       F6(9)    C9  G/B
Caberá só a mim esquecer
Am7                 G4/B      C
    O que eu ganho, o que eu perco
     D  G     C9     G  C9  G
Ninguém   precisa saber

[Tab - Intro]

Parte 1 de 4
E|----7-7-7-7-7-----7-7-7-7-7---------------|
B|----3-3-3-3-3-----3-3-3-3-3---------------|
G|-0--0-0-0-0-0--0--0-0-0-0-0---------------|
D|------------------------------------------| (2x)
A|------------------------------------------|
E|------------------------------------------|
   ↓  ↓ ↓ ↑ ↓ ↑   ↓   ↓ ↓ ↑ ↓ ↑ 

Parte 2 de 4
E|----7-7-7-----10-10-10-10-10--------------|
B|----3-3-3-----6--6--6--6--6---------------|
G|-0--0-0-0-0---0--0--0--0--0---------------|
D|------------------------------------------|
A|------------------------------------------|
E|------------------------------------------|
   ↓   ↓ ↓ ↑ ↓   ↓  ↓  ↑   ↓  ↑

E|----8-8-8-8-8----8------------------------|
B|----5-5-5-5-5----4------------------------|
G|-0--0-0-0-0-0-0--0------------------------|
D|------------------------------------------|
A|------------------------------------------|
E|------------------------------------------|
   ↓   ↓ ↓ ↑ ↓ ↑ ↓  ↓ 

Parte 3 de 4
E|-7-7-7-7-7----6-6-6-6-6-------------------|
B|-3-3-3-3-3----2-2-2-2-2-------------------|
G|-0-0-0-0-0-0--0-0-0-0-0-0-----------------|
D|------------------------------------------|
A|------------------------------------------|
E|------------------------------------------|
   ↓ ↓ ↑ ↓ ↑  ↓  ↓ ↓ ↑ ↓ ↑  ↓

Parte 4 de 4
E|----5-5-5-5-5-5-5-5--3---2---2------------|
B|----1-1-1-1-1-1-1-1--1-1-1-1-1------------|
G|----0-0-0-0-0-0-0-0--0-0-0-0-0------------|
D|-0----------------------------------------|
A|------------------------------------------|
E|------------------------------------------|
   ↓   ↓ ↓ ↑ ↓ ↑ ↓ ↑ ↓   ↑ ↓ ↑ ↓ ↑

E|-----3-3-3-3-3-3--------------------------|
B|-----1-1-1-1-1-1--------------------------|
G|-----0-0-0-0-0-0--------------------------|
D|-0-------------0--------------------------|
A|------------------------------------------|
E|------------------------------------------|
   ↓   ↓ ↓ ↑ ↓  ↑ ↓

[Primeira Parte]

    G
Eu gosto tanto de você
      C9
Que até prefiro esconder
G/B                            D4  D  
    Deixo assim ficar subentendi__do

[Segunda Parte]

           Am      G/B  C     
Como uma ideia que e___xiste 
 D    G      D5(9)
Na cabeça e não
         Am     G/B  C     
Tem a menor preten__são 
     D    G  C9  G
De acontecer

[Refrão]

C9               D
   Pode até parecer fraqueza
          G       F6(9)   C9  G/B
Pois que seja fraqueza então
Am7             G4/B  C
    A alegria que me dá
      D            G  G7M  G7
Isso vai sem eu dizer

C                    D
  Se amanhã não for nada disso
     G       F6(9)    C9                
Caberá só a mim esquecer, 
               G/B
Eu vou sobreviver
Am7                 G4/B      C
    O que eu ganho, o que eu perco
     D  G     C9     G  C9  G
Ninguém   precisa saber

[Tab - Final] 

Parte 2 de 4
E|----7-7-7-----10-10-10-10-10--------------|
B|----3-3-3-----6--6--6--6--6---------------|
G|-0--0-0-0-0---0--0--0--0--0---------------|
D|------------------------------------------|
A|------------------------------------------|
E|------------------------------------------|
   ↓   ↓ ↓ ↑ ↓   ↓  ↓  ↑   ↓  ↑

E|----8-8-8-8-8----8------------------------|
B|----5-5-5-5-5----4------------------------|
G|-0--0-0-0-0-0-0--0------------------------|
D|------------------------------------------|
A|------------------------------------------|
E|------------------------------------------|
   ↓   ↓ ↓ ↑ ↓ ↑ ↓  ↓ 

Parte 3 de 4
E|-7-7-7-7-7----6-6-6-6-6-------------------|
B|-3-3-3-3-3----2-2-2-2-2-------------------|
G|-0-0-0-0-0-0--0-0-0-0-0-0-----------------|
D|------------------------------------------|
A|------------------------------------------|
E|------------------------------------------|
   ↓ ↓ ↑ ↓ ↑  ↓  ↓ ↓ ↑ ↓ ↑  ↓

Parte 4 de 4
E|----5-5-5-5-5-5-5-5--3---2---2------------|
B|----1-1-1-1-1-1-1-1--1-1-1-1-1------------|
G|----0-0-0-0-0-0-0-0--0-0-0-0-0------------|
D|-0----------------------------------------|
A|------------------------------------------|
E|------------------------------------------|
   ↓   ↓ ↓ ↑ ↓ ↑ ↓ ↑ ↓   ↑ ↓ ↑ ↓ ↑

E|-----3-3-3-3-3-3--------------------------|
B|-----1-1-1-1-1-1--------------------------|
G|-----0-0-0-0-0-0--------------------------|
D|-0-------------0--------------------------|
A|------------------------------------------|
E|------------------------------------------|
   ↓   ↓ ↓ ↑ ↓  ↑ ↓

   H.N. . .
B|------------------------------------------|
G|-12--7--5---------------------------------|
D|-12--7--5---------------------------------|
A|-12--7--5---------------------------------|
E|------------------------------------------|
E|------------------------------------------|
    ↓  ↓  ↓
Otros videos de esta canción
    19.011 exhibiciones
    • Simplificar cifrado
      • ½ Tono
      • Am
      • Bbm
      • Bm
      • Cm
      • C#m
      • Dm
      • Ebm
      • Em
      • Fm
      • F#m
      • Gm
      • G#m
    • Agregar a la lista

    Afinação da cifra

    Afinador online

      Capítulos
      • Início
      • Tocando a Música
      • Tocando Introdução
      • Ensinando Introdução
      • Acordes Primeira Parte
      • Tocando Primeira Parte
      • Ensinando Primeira Parte
      • Acorde Segunda Parte
      • Tocando Segunda Parte
      • Ritmo Segunda Parte
      • Acordes Refrão
      • Tocando Refrão
      • Ritmo Refrão
      • Tocando Final
      • Encerramento
      Ops (: Contenido disponible solo en portugués.
      OK