Cifra Club

Certas Coisas

Lulu Santos

Cifrado: Versão 3 (guitarra y guitarra eléctrica)
Já pensou em usar uma coleção de roupas do Cifra Club? Responda as perguntas abaixo e nos ajude nessa missão! →
tono: G
Intro: (Acordes com pestana)   (G  C  Cm  G)     (dedilhar com pestana. Ouça a introdução na música)

(giff 1)
   G                C                  Cm                    G
1-----------3--/--------------8----/--------------8-----/--------------3----------------------
2---------3----/-----------8-------/-----------8--------/-----------3-------------------------
3-------4------/--------9----------/--------8-----------/--------4----------------------------
4--------------/-------------------/--------------------/-------------------------------------
5--------------/-------------------/--------------------/-------------------------------------
6---3----------/---8---------------/---10---------------/---3---------------------------------   (2X)

G              C
Não existiria som
     Cm                   G
Se não houvesse o silêncio
 G7M         C
Não haveria luz
        Cm            G-D/F#
Se não fosse a escuridão
Em                A9
A vida é mesmo assim,
       Am            G-Em-D7
Dia e noite, não e sim...

Intro: (Acordes com pestana)   (G  C  Cm  G)   (Giff 1)- 1x

G                       C
Cada voz que canta o amor não diz
Cm                  G
Tudo o que quer dizer,
G                 C
Tudo o que cala fala
      Cm           G-D/F#
Mais alto ao coração.
Em           A9         Am          G-Em-D7
Silenciosamente eu te falo com paixão...

G             A
Eu te amo calado,
            B7           Em-Dm
Como quem ouve uma sinfonia
C        C/D           (Em)   (deve ser feito já como parte da giff 2)
De silêncios e de luz.

(giff 2)
1------------0--------------------------------
2---------------3----1-----0------------------
3------------------2----2-----2----0----------
4------2--------------------------------------
5----2----------------------------------------
6-0-------------------------------------------

C                    F#m
Nós somos medo e desejo,
  B7      Em                C
Somos feitos de silêncio e som,
A9          F#m               B7      G
Tem certas coisas que eu não sei dizer...

(giff 1)
Intro: (Acordes com pestana)   (G  C  Cm  G) -D/F#

Em               A9
A vida é mesmo assim,
Am                  G- Em-D7
Dia e noite, não e sim...

G             A
Eu te amo calado,
            B7           Em-Dm
Como quem ouve uma sinfonia
C       C/D            Em
De silêncios e de luz.

(giff 2)
1------------0--------------------------------
2---------------3----1-----0------------------
3------------------2----2-----2----0----------
4------2--------------------------------------
5----2----------------------------------------
6-0-------------------------------------------

C                    F#m
Nós somos medo e desejo,
  B7      Em                C
Somos feitos de silêncio e som,
A9          F#m          B7          G
Tem certas coisas que eu não sei dizer...

(Giff 1)
Intro: (Acordes com pestana)   (G  C  Cm  G)  G
Composición de Lulu Santos / Nelson Motta
Colaboración y revisión:
  • Bermudes
117 vistas
  • Simplificar cifrado
    • ½ Tono
    • A
    • Bb
    • B
    • C
    • Db
    • D
    • Eb
    • E
    • F
    • F#
    • G
    • Ab
  • Agregar a la lista

    0 comentarios

    Ver todos los comentarios

    ¿Lograste tocar?

    4 Tocaron 0 Aún no

    ¡Graba un video tocando Certas Coisas y envíanoslo!

    00:00 / 00:00
    Outros vídeos desta música
    Repetir Calidad Automático
    Outros vídeos desta música
    00:00 / 00:00
    Automático
    OK