Cifra Club

Eu Quebro o Meu Vaso

Luma Elpidio

Tablatura: Principal (guitarra)
Tom: Eb (con acordes en la forma de B) Capo en 4ª casa
[Intro] G  G/B  C9

[Parte 1 de 3] - Intro e Versos
    
    G                     G/B
E|---------------------------------------------------------|
B|------3----3----3----3------3---3----3----3--------------|
G|-----0---0----0----0-------0--0----0----0----------------|
D|----0---0-0--0-0--0-0-----0--0-0--0-0--0-0---------------|
A|------------------------2--------------------------------|
E|--3------------------------------------------------------|

     C9                 
E|-----3-2p0---------------3-2p0---------------------------|
B|----------3----3----3---------3---3----------------------|
G|----0--------0----0-----0-------0----0-0-----------------|
D|---0--0-----0-0--0-0---0--0----0-0-----------------------|
A|--3-------------------3-------------3-2p0----------------|
E|---------------------------------------------------------|

G                 
   Ao seus pés estou
G/B                     C9
   Pra render tudo que sou a Ti
Tudo que eu tiver

G                 
   Receba aqui senhor
G/B                   C9
   Meu perfume minhas lágrimas
     
Que vão cair

[Parte 2 de 3] - Passagem das frases

    Am7                     G/B
E|---------------------------------------------------------|
B|-----1----1----1----------3---3----3----3----------------|
G|----0---0----0----0-0----0--0----0----0------------------|
D|---2---2-2--2-2--2-2----0--0-0--0-0--0-0-----------------|
A|--0--------------------2---------------------------------|
E|---------------------------------------------------------|

    Em7                  C9
E|---------------------------------------------------------|
B|-----3----3----3----3-----3---3----3----3----------------|
G|----0---0----0----0------0--0----0----0-----0-0----------|
D|---0---2-2--2-2--2-2----0--0-0--0-0--0-0-----------------|
A|-----------------------3-------------------3-2p0---------|
E|--0------------------------------------------------------|

Am7                       G/B
   Basta um olhar no seu rosto
    Em7                C9
Fui perdoado logo que te vi

[Parte 3 de 3] - Passagem (preparação para o refrão)

    Am7                     G/B
E|----------0----------------------0----------------------|
B|-----1--------1--------------3--------3-----------------|
G|----0---0----0----0-0-------0--0----0----0-0------------|
D|---2---2-2--2-2--2-2-------0--0-0--0-0--0-0-------------|
A|--0-----------------------2-----------------------------|
E|--------------------------------------------------------|

    Em7                    D9
E|----------0-----------------0h2---2h3---0h2-------------|
B|-----3---------3-----------3---3-----3-----3------------|
G|----0---0----0----0-0-----2-----2-----2-----------------|
D|---2---2-2--2-2--2-2-----0-------0----------------------|
A|--------------------------------------------------------|
E|--0-----------------------------------------------------|

Am7                   G/B
   E todos os meus tesouros
       Em7                D9
Eu vou derramar diante de Ti

[Refrão]

     G
E eu quebro o meu vaso
     G/B                        C9
E eu quebro o meu vaso aos seus pés
           Am7
Aos pés do meu amado

     G
E eu quebro o meu vaso
     G/B                        C9
E eu quebro o meu vaso aos seus pés
           Am7   
Aos pés do meu amado

( G  G/B  C9 )

                 G
E não importa o preço
            G/B
Do perfume derramado        
               C9           
A Tua presença vale mais
Tua presença vale mais

                 G
E não importa o preço
            G/B
Do perfume derramado        
               C9            
A Tua presença vale mais
             Em7      D9
Tua presença vale mais

[Refrão]

     G
E eu quebro o meu vaso
     G/B                        C9
E eu quebro o meu vaso aos seus pés
           Am7
Aos pés do meu amado

     G
E eu quebro o meu vaso
     G/B                        C9
E eu quebro o meu vaso aos seus pés
           Am7   D/F#  G
Aos pés do meu amado
reproducciones 62
Acordes para:
    Composição: André Aquino / Luma Elpidio Colaboración y revision:

    0 comentarios

    mostrar más comentarios

    ¿Conseguiste tocar?

    14 tocaron 6 aún no

    ¡Graba un vídeo tocando Eu Quebro o Meu Vaso y envianoslo!

    00:00 / 00:00
    outros vídeos desta música
    repetir qualidade Automático
    Outros vídeos desta música
    00:00 / 00:00
    Automático
    OK