Cifra Club

Outro

M83

Tablatura: Principal (guitarra)
Tom: D
Intro 2x: D Em Bm G D
          D Em Bm G D

D    Em    Bm      G              D
           I'm the king of my own land,

D             Em          Bm         G               D
       Facing tempests of dust, I'll fight until the end,

D                             Em           Bm            G      D
       Creatures of my dreams raise up and dance with me!

D       Em    Bm            G       D
Now and forever... I'm your kiiiiiiing!

D|- Em - Bm - G (etc...)

E|--------7--------5-----5-------------------------------------|
B|--8--7-----7--------8-----8--7--8--7-------------------------|
G|--------------7-----------------------7----------------------|
D|-------------------------------------------------------------|
A|-------------------------------------------------------------|
D|-------------------------------------------------------------|

E|--------------7--------5-----5-------------------------------|
B|--7--7--8--7-----7--------8-----8--7--8--7-------------------|
G|--------------------7-----------------------7----------------|
D|-------------------------------------------------------------|
A|-------------------------------------------------------------|
D|-------------------------------------------------------------|

E|-------------------------------------------------------------|
B|-------------------------------------------------------------|
G|-------------------------------------------------------------|
D|-----7------7-----7-----7------------------------------------|
A|--9-----10-----7-----9---------------------------------------|
D|-------------------------------------------------------------|
reproducciones 96
Acordes para:

    0 comentarios

    mostrar más comentarios

    ¿Conseguiste tocar?

    0 tocaron 0 aún no

    ¡Graba un vídeo tocando Outro y envianoslo!

    00:00 / 00:00
    outros vídeos desta música
    repetir qualidade Automático
    Outros vídeos desta música
    00:00 / 00:00
    Automático
    OK