Cifra Club

Cuentos Decapitados

Catupecu Machu

Cifrado: Principal (guitarra y guitarra eléctrica)
tono: Fm

E|--------------------------------|
B|-----------6----------6---------|
G|-----------5-x--------6---------|
D|--6-x-8-x----x-6-8-6x----6-x----| INTRO
A|--------------------------------|
E|--------------------------------|

  Sin nacer...                               HEY!
E|-----------------------------------------------------------------------|
B|-----------------------------------------------------------------------|
G|---6--6--6--6--6--5--5--5--5--4--4--4--4--4----------------------------|
D|---6--6--6--6--6--5--5--5--5--4--4--4--4--4----6-6666-6/8-8888-6-------|
A|---4--4--4--4--4--3--3--3--3--2--2--2--2--2----------------------------|
E|-----------------------------------------------------------------------|
E|-----P.M----------|
    Pídeme todo lo que tu mas quieras...
E|----------------------------------------------|
B|----------------------------------------------|
G|---6--6--6--6--6--5--5--5--5--4--4--4--4--4---|
D|---6--6--6--6--6--5--5--5--5--4--4--4--4--4---|
A|---4--4--4--4--4--3--3--3--3--2--2--2--2--2---|
E|----------------------------------------------|

    Pídemelo de la forma que quieras...      y algun lapso de tiempo inmortal
E|--------------------------------------------------------------------------|
B|--------------------------------------------------------------------------|
G|---6--6--6--6--6--5--5--5--5--4--4--4--4--4-------------------------------|
D|---6--6--6--6--6--5--5--5--5--4--4--4--4--4---6-666666-66666/13-1313--10--|
A|---4--4--4--4--4--3--3--3--3--2--2--2--2--2-------------------------------|
E|--------------------------------------------------------------------------|
E|--------P.M---------------|

CAMBIO
E|-----------------------------------------------|
B|-----------------------------------------------|
G|--6-6-6-5-5-5--8--4-4-4-4-4/9/4--3-3-3-3-3-3-3-|
D|--6-6-6-5-5-5--8--4-4-4-4-4/9/4--3-3-3-3-3-3-3-|
A|--4-4-4-3-3-3--6--2-2-2-2-2/7/2--1-1-1-1-1-1-1-|
E|-----------------------------------------------|

  Te empiezo a ver más alla...  (hasta una hoguera resplandeciendo)
E|------------------|
B|------------------|
G|-3-3-3-3-3-3-3-3--| No se puede escuchar muy bien
D|-3-3-3-3-3-3-3-3--| la guitarra, pero tocando esto
A|-1-1-1-1-1-1-1-1--| queda bien...
E|------------------|

  (despues de "una hoguera resplandeciendo". se escucha atras de los samplers)
E|----------------------------------------------------------|
B|----------------------------------------------------------|
G|----------------------------------------------------------|
D|--10/13--13-13-13-13---10-10-10-10---8-8-8-8-8---10-8-10--| X2
A|----------------------------------------------------------|
E|----------------------------------------------------------|

vuelve a la INTRO

Se repite todo otra vez


FINAL

E|-----------------------------------------------------|
B|-----------------------------------------------------|
G|-----------------------------------------------------|
D|-13--13-13-13---10--10-10-10--8---8-8-8---10--8--10--| Se repite hasta que
A|-x---x--x--x----x---x--x--x---x---x-x-x---x---x--x---| termina la cancion
E|-11--11-11-11---8---8--8--8---6---6-6-6---8---6--8---|
Composición de F. Ruiz Díaz, G. Ruiz Díaz, M. Sosa
3 vistas
    • ½ Tono
    • Am
    • Bbm
    • Bm
    • Cm
    • C#m
    • Dm
    • Ebm
    • Em
    • Fm
    • F#m
    • Gm
    • G#m
  • Agregar a la lista

    0 comentarios

    Ver todos los comentarios

    ¿Lograste tocar?

    0 Tocaron 0 Aún no

    ¡Graba un video tocando Cuentos Decapitados y envíanoslo!

    00:00 / 00:00
    Outros vídeos desta música
    Repetir Calidad Automático
    Outros vídeos desta música
    00:00 / 00:00
    Automático
    OK