Cifra Club

La Llama

Catupecu Machu

Cifrado: Principal (guitarra y guitarra eléctrica)
Acompaña nuestras novedades de Cifra Club en español.
¡Sigue nuestro perfil en Instagram!
tono: Em

intro
E|-----3333-3333-|-----3333-3333-|-----3333-3333-|-----3333-3333-|
B|-----3333-3333-|-----3333-3333-|-----3333-3333-|-----3333-3333-|
G|---------------|---------------|---------------|---------------|
D|---------------|---------------|---------------|---------------|
A|-222-----------|-222-----------|-222-----------|-222-----------|
E|-000-----------|-000-----------|-000-----------|-000-----------|

E|------------------------------------------------------------33333-|
B|------------------------------------------------------------33333-|
G|------------------------------------------------------------------| x4
D|---------------------------------2--------------------------------|
A|---------3-2-0---0---------3-2--------------3-2-0---0-2-----------|
E|-0-0-3-0-------3---0-0-3-0-----3----0-0-3-0-------3-----3-0-------|

Em
ay nomas! nada me para esta vez
me mata el dolor, ya quiero volver
         A        Am
despues de morir una y otra vez
     A
presiento el momento de ese reencuentro
    Am
con mi nacimiento otra vez

E|-----3333-3333-|-----3333-3333-|-----3333-3333-|-----3333-3333-|
B|-----3333-3333-|-----3333-3333-|-----3333-3333-|-----3333-3333-|
G|---------------|---------------|---------------|---------------|
D|---------------|---------------|---------------|---------------|
A|-222-----------|-222-----------|-222-----------|-222-----------|
E|-000-----------|-000-----------|-000-----------|-000-----------|

E|-----------------------------|
B|-----------------------------|
G|-------------------7-7-7-5-4-|
D|-5-5-5-4--5-5-5-4------------|
A|-----------------------------|
E|-----------------------------|

 C               D               G|-------------------7-7-7-5-4-|
manto rojo, la llama, Dios vino  D|-5-5-5-4--5-5-5-4------------|

 C               D               G   D   G   D
manto rojo, la llama, Dios vino

E|-----3333-3333-|-----3333-3333-|-----3333-3333-|-----3333-3333-|
B|-----3333-3333-|-----3333-3333-|-----3333-3333-|-----3333-3333-|
G|---------------|---------------|---------------|---------------|
D|---------------|---------------|---------------|---------------|
A|-222-----------|-222-----------|-222-----------|-222-----------|
E|-000-----------|-000-----------|-000-----------|-000-----------|

E|------------------------------------------------------------33333-|
B|------------------------------------------------------------33333-|
G|------------------------------------------------------------------| x2
D|---------------------------------2--------------------------------|
A|---------3-2-0---0---------3-2--------------3-2-0---0-2-----------|
E|-0-0-3-0-------3---0-0-3-0-----3----0-0-3-0-------3-----3-0-------|

la llama que se hace gigante aqui
que parte de mi, hacia la luna va a crecer
me hace sentir que estoy vivo otra vez
que en este momento soy parte del viento y del mar
o de lo que quiera ser

E|-----3333-3333-|-----3333-3333-|-----3333-3333-|-----3333-3333-|
B|-----3333-3333-|-----3333-3333-|-----3333-3333-|-----3333-3333-|
G|---------------|---------------|---------------|---------------|
D|---------------|---------------|---------------|---------------|
A|-222-----------|-222-----------|-222-----------|-222-----------|
E|-000-----------|-000-----------|-000-----------|-000-----------|

E|-----------------------------|
B|-----------------------------|
G|-------------------7-7-7-5-4-|
D|-5-5-5-4--5-5-5-4------------|
A|-----------------------------|
E|-----------------------------|

manto rojo, la llama, Dios vino
manto rojo, la llama, Dios vino

E|-----3333-3333-|-----3333-3333-|-----3333-3333-|-----3333-3333-|
B|-----3333-3333-|-----3333-3333-|-----3333-3333-|-----3333-3333-|
G|---------------|---------------|---------------|---------------|
D|---------------|---------------|---------------|---------------|
A|-222-----------|-222-----------|-222-----------|-222-----------|
E|-000-----------|-000-----------|-000-----------|-000-----------|

E|------------------------------------------------------------33333-|
B|------------------------------------------------------------33333-|
G|------------------------------------------------------------------| x2
D|---------------------------------2--------------------------------|
A|---------3-2-0---0---------3-2--------------3-2-0---0-2-----------|
E|-0-0-3-0-------3---0-0-3-0-----3----0-0-3-0-------3-----3-0-------|

Em   G
ua, ae ae
Em   G
ua, ae ae
Em
ua, eua, eua, ae ae
Composición de Fernando Ruiz Díaz
    • ½ Tono
    • Am
    • Bbm
    • Bm
    • Cm
    • C#m
    • Dm
    • Ebm
    • Em
    • Fm
    • F#m
    • Gm
    • G#m
  • Agregar a la lista

    0 comentarios

    Ver todos los comentarios

    ¿Lograste tocar?

    0 Tocaron 0 Aún no

    ¡Graba un video tocando La Llama y envíanoslo!

    00:00 / 00:00
    Outros vídeos desta música
    Repetir Calidad Automático
    Outros vídeos desta música
    00:00 / 00:00
    Automático
    OK