Cifra Club

Mama me dijo que no viniera

Catupecu Machu

Cifrado: Principal (guitarra y guitarra eléctrica)
Acompaña nuestras novedades de Cifra Club en español.
¡Sigue nuestro perfil en Instagram!
tono: Fm
E|--17b---17b----17b---17b--17b--------|
B|--16b---16b----16b---16b--16b--------|
G|-------------------------------------|
D|-------------------------------------|
A|-------------------------------------|
E|-------------------------------------|

E|-------------------------------|
B|-------------------------------|
G|-------------------------------|
D|--10--11--12---12-------------|
A|--10--11--12---12-------------|
E|--8---9---10---10-------------|
Compositor não encontrado.
    • ½ Tono
    • Am
    • Bbm
    • Bm
    • Cm
    • C#m
    • Dm
    • Ebm
    • Em
    • Fm
    • F#m
    • Gm
    • G#m
  • Agregar a la lista

    0 comentarios

    Ver todos los comentarios

    ¿Lograste tocar?

    0 Tocaron 0 Aún no

    ¡Graba un video tocando Mama me dijo que no viniera y envíanoslo!

    00:00 / 00:00
    Outros vídeos desta música
    Repetir Calidad Automático
    Outros vídeos desta música
    00:00 / 00:00
    Automático
    OK