Cifra Club

Mil voces finas

Catupecu Machu

Cifrado: Principal (guitarra y guitarra eléctrica)
Acompaña nuestras novedades de Cifra Club en español.
¡Sigue nuestro perfil en Instagram!
tono: D

(intro)
E|---------------------|---------------------|---------------------|---------------------|
B|---------------------|---------------------|---------------------|---------------------|
G|---------------------|---------------------|---------------------|---------------------|
D|------------77-7s9p7-|------------77-7s9p7-|------------77-7s9p7-|------------77-7s9p7-|
A|-77-7s9p7---55-5s7p5-|-77-7s9p7---55-5s7p5-|-77-7s9p7---55-5s7p5-|-77-7s9p7---55-5s7p5-|
E|-55-5s7p5------------|-55-5s7p5------------|-55-5s7p5------------|-55-5s7p5------------|

E|--------------------|--------------------|--------------------|--------------------|
B|--------------------|--------------------|--------------------|--------------------|
G|--------------------|--------------------|--------------------|--------------------|
D|---12---------------|---12---------------|---12---------------|---12---------------|
A|-9-10----12---99999-|-9-10----12---99999-|-9-10----12---99999-|-9-10----12---99999-|
E|-7-------10---77777-|-7-------10---77777-|-7-------10---77777-|-7-------10---77777-|

 A5
mil voces finas dan por hecho
las manos marcan el final
no se q hay del otro lado
                   B5
la duda eS como el mal

E|--------------------|--------------------|--------------------|-------------------|
B|--------------------|--------------------|--------------------|-------------------|
G|--------------------|--------------------|--------------------|-------------------|
D|---12---------------|---12---------------|---12---------------|-------------------|
A|-9-10----12---99999-|-9-10----12---99999-|-9-10----12---99999-|-9-x-9-x-9-x-9-x-9-|
E|-7-------10---77777-|-7-------10---77777-|-7-------10---77777-|-7-x-7-x-7-x-7-x-7-|

      A5
he llegado hasta aqui
                              B5
todo se termino, repetia liquidado
   A5
recordando lo que fue
                   B5
mi suerte ha terminado

E|--------------------|--------------------|--------------------|--------------------|
B|--------------------|--------------------|--------------------|--------------------|
G|--------------------|--------------------|--------------------|--------------------|
D|---12---------------|---12---------------|---12---------------|---12---------------|
A|-9-10----12---99999-|-9-10----12---99999-|-9-10----12---99999-|-9-10----12---99999-|
E|-7-------10---77777-|-7-------10---77777-|-7-------10---77777-|-7-------10---77777-|

E|---------------------|---------------------|
B|---------------------|---------------------|
G|---------------------|---------------------|
D|------------77-7s9p7-|------------77-7s9p7-|
A|-77-7s9p7---55-5s7p5-|-77-7s9p7---55-5s7p5-|
E|-55-5s7p5------------|-55-5s7p5------------|

E|--------------|--------------|---------|--------------|--------------|----------------------------------|
B|--------------|--------------|---------|--------------|--------------|----------------------------------|
G|--------------|--------------|---------|--------------|--------------|----------------------------------|
D|-------5------|-------5------|-5555555-|-------5------|-------5------|-55555555555555555555555555555555-|
A|----5---------|----5---------|---------|----5---------|----5---------|----------------------------------|
E|-7------------|-7------------|---------|-7------------|-7------------|----------------------------------|

E|--------------------|--------------------|--------------------|--------------------|
B|--------------------|--------------------|--------------------|--------------------|
G|--------------------|--------------------|--------------------|--------------------|
D|---12---------------|---12---------------|---12---------------|---12---------------|
A|-9-10----12---99999-|-9-10----12---99999-|-9-10----12---99999-|-9-10----12---99999-|
E|-7-------10---77777-|-7-------10---77777-|-7-------10---77777-|-7-------10---77777-|

     A5
el dolor del que busca y no encuentra
el temor a hablar de miseria
la razon que mira al costado
                                     B5
el instinto indomable suelto sin riendas

E|--------------------|--------------------|--------------------|-------------------|
B|--------------------|--------------------|--------------------|-------------------|
G|--------------------|--------------------|--------------------|-------------------|
D|---12---------------|---12---------------|---12---------------|-------------------|
A|-9-10----12---99999-|-9-10----12---99999-|-9-10----12---99999-|-9-x-9-x-9-x-9-x-9-|
E|-7-------10---77777-|-7-------10---77777-|-7-------10---77777-|-7-x-7-x-7-x-7-x-7-|

      A5
he llegado hasta aqui
                              B5
todo se termino, repetia liquidado
   A5
recordando lo que fue
                   B5
mi suerte ha terminado

E|--------------------|--------------------|--------------------|--------------------|
B|--------------------|--------------------|--------------------|--------------------|
G|--------------------|--------------------|--------------------|--------------------|
D|---12---------------|---12---------------|---12---------------|---12---------------|
A|-9-10----12---99999-|-9-10----12---99999-|-9-10----12---99999-|-9-10----12---99999-|
E|-7-------10---77777-|-7-------10---77777-|-7-------10---77777-|-7-------10---77777-|

E|-----------------------|-----------------------|
B|-----------------------|-----------------------|
G|-----------------------|-----------------------|
D|-------------7-7-7s9p7-|-------------7-7-7s9p7-|
A|-7-7-7s9p7---5-5-5s7p5-|-7-7-7s9p7---5-5-5s7p5-|
E|-5-5-5s7p5-------------|-5-5-5s7p5-------------|

E|----------------------------------------------------------------------------------------|
B|----------------------------------------------------------------------------------------|
G|-------------------------------------4---------------4----------------------------------|
D|-0----4------------------------------4---------------4----------------------------------|
A|-0----4----5p4-0--0--5~----5p4-2--2--2~----5p4-2--2--2~----5p4-0--0--5~----5p4-2--2--7~-|
E|-----------5p4-0--0--5~----5p4-2--2--2~----5p4-2--2--2~----5p4-0--0--5~----5p4-2--2--7~-|

E|------------------|----------------|------------------|----------------|------------------|----------------|
B|------------------|----------------|------------------|----------------|------------------|----------------|
G|------------------|--------66--999-|------------------|--------66--999-|------------------|--------66--999-|
D|------------------|-7--99--44--777-|------------------|-7--99--44--777-|------------------|-7--99--44--777-|
A|-55555--33333--32-|-5--77----------|-55555--33333--32-|-5--77----------|-55555--33333--32-|-5--77----------|
E|------------------|----------------|------------------|----------------|------------------|----------------|

E|----------------| |----------------|           |----------------|           |----------------|
B|----------------| |----------------|           |----------------|           |----------------|
 D5   D5  G|--------66--999-|  D5   D5  |--------66--999-|  D5   D5  |--------66--999-|  D5   D5  |--------66--999-|
uoh, uoh  D|-7--99--44--777-| uoh, uoh  |-7--99--44--777-| uoh, uoh  |-7--99--44--777-| uoh, uoh  |-7--99--44--777-|
A|-5--77----------| |-5--77----------|           |-5--77----------|           |-5--77----------|
E|----------------| |----------------|           |----------------|           |----------------|
Composición de F. ruiz diaz
    • ½ Tono
    • A
    • Bb
    • B
    • C
    • Db
    • D
    • Eb
    • E
    • F
    • F#
    • G
    • Ab
  • Agregar a la lista

    0 comentarios

    Ver todos los comentarios

    ¿Lograste tocar?

    0 Tocaron 0 Aún no

    ¡Graba un video tocando Mil voces finas y envíanoslo!

    00:00 / 00:00
    Outros vídeos desta música
    Repetir Calidad Automático
    Outros vídeos desta música
    00:00 / 00:00
    Automático
    OK