Cifra Club

Nuevo Libro

Catupecu Machu

Cifrado: Principal (guitarra y guitarra eléctrica)
tono: C
E|--------------------------|------|-----------------------|
B|--------------------------|------|-----------------------|
G|-----------9-/7-/9-11-12--|--0---|-----------------------|
D|-0---------7-/5-/7-9--10--|--2---|-10-10---9-9-7-7-5-5-4-|
A|-0-2-2---2-7-/5-/7-9--10--|--2---|-10-10---9-9-7-7-5-5-4-|
E|-0-0-0---0-0-/0-/0-0--0---|--0---|-8--8----7-7-5-5-3-3-2-|

   Riff                    Estrofa        Corte


E|-----------|
B|-0--0--0---|
G|-0--0--0---|
D|-5--7--10--|
A|-5--7--10--|
E|-3--5--8---|

  G  A  C



Intro (Riff.)

(estrofa)
Miro todo el cielo
que se apaga
miro el sol que muere
en estas aguas

Pienso fuerte en eso de lo que hablas
C
cuento hasta vivirlo y luego hablas. (corte)

Cruza fuegos,
deja tus sandalias
crubre en tierra
el miedo a la nada
algo q atormenta ya no habla
C
Cuenta hasta morir y luego calla

G           A                   Riff
Y el nuevo libro es esta noche sabia
G         A
sabia corriendo en las laderas
         C
que nos acompañan.
            Corte.
Sin saber...


Una vez al filo y otra al viento
una vez minutos, luego eterno
canto en voces ecos de mañana
vuelven de algún fín y luego hablan.

Contra los molinos de tu viento
frente a las nociones que no tengo
detrás de las cosas que pasan
lo que al fin de cuentas luego callas.
Composición de Ruiz Diaz
1 vistas
    • ½ Tono
    • A
    • Bb
    • B
    • C
    • Db
    • D
    • Eb
    • E
    • F
    • F#
    • G
    • Ab
  • Agregar a la lista

    0 comentarios

    Ver todos los comentarios

    ¿Lograste tocar?

    0 Tocaron 0 Aún no

    ¡Graba un video tocando Nuevo Libro y envíanoslo!

    00:00 / 00:00
    Outros vídeos desta música
    Repetir Calidad Automático
    Outros vídeos desta música
    00:00 / 00:00
    Automático
    OK