Cifra Club

Secretos pasadizos

Catupecu Machu

Cifrado: Principal (guitarra y guitarra eléctrica)
Selo Cifra Club: esta cifra foi revisada para atender aos critérios oficiais da nossa Equipe de Qualidade.
tono: D
INTRO

      (Dale con la palanca despues de que tocas la nota)
E|--15--------12-------------------------------------------------------------|
B|---------------------------------------------------------------------------|
G|---------------------------------------------------------------------------|
D|---------------------------------------------------------------------------|
A|---------------------------------------------------------------------------|
E|---------------------------------------------------------------------------|



RIFF A

E|------------------------------------|
B|------------------------------------|
G|--------------4-4-4-4---3----7-7---|
D|-8-8-8-8-8----4-4-4-4---3----7-7---| X4
A|-8-8-8-8-8----2-2-2-2---1----5-5---|
E|-6-6-6-6-6--------------------------|



RIFF A2

E|----------------------------|
B|----------------------------|
G|----------------------------|
D|---8-x-x-x-8-x-8-x-8-8-x-x--| X4
A|---8-x-x-x-8-x-8-x-8-8-x-x--|
E|---6-x-x-x-6-x-6-x-6-6-x-x--|


RIFF B

     Brilla noche en la bitacora...
E|--------------------------------|
B|--------------------------------|
G|--------------------------------|
D|--8--8--8--8--8--8--8--8--8--8--|
A|--8--8--8--8--8--8--8--8--8--8--|
E|--6--6--6--6--6--6--6--6--6--6--|

   trueno hoy,hoy,hoy,hoy,hoy  EHH!!!
E|---------------------------------|
B|---------------------------------|
G|---------------------------------|
D|------------6--6--6--6--6--6-----|
A|------------6--6--6--6--6--6-----|
E|------------4--4--4--4--4--4-----|


Tocar RIFF A

Tocar RIFF B

  Abracadabra..    Un nuevo trance   Voy a escribir...   Algo incontable   todo encaja...   te lleve...   Secretos...   misterios guardan
E|----------------------------------------------------------------------------------------------------------------------------------------|
B|----------------------------------------------------------------------------------------------------------------------------------------|
G|----------------------------------------------------------------------------------------------------------------------------------------|
D|--8-8-8-8-8---------8-8-8-8--------8-8-8-8-8-----------8-8-8-8------------8-8-8-8-8---------8-8-8-8-------6-6-6--------6-6-6-6----------|
A|--8-8-8-8-8---------8-8-8-8--------8-8-8-8-8-----------8-8-8-8------------8-8-8-8-8---------8-8-8-8-------6-6-6--------6-6-6-6----------|
E|--7-7-7-7-7---------7-7-7-7--------7-7-7-7-7-----------7-7-7-7------------7-7-7-7-7---------7-7-7-7-------4-4-4--------4-4-4-4----------|
E|--P.M--| --P.M-|                             --P.M-|                   --P.M--|

Tocar la INTRO

Tocar RIFF A2

FINAL

Brilla noche.... Quiebra un rayo hoy,suena el trueno hoy  (suenan la bata y el bajo)
E|--------------------------------------------------------------------------------------------------------|
B|--------------------------------------------------------------------------------------------------------|
G|--------------------------------------------------------------------------------------------------------|
D|-8-8-8-8-8-8-8-8-8-8-8-8-8-8-8-8-8-8-8-8-8-8-8-8-8-8-8-8--*****-----------------------8--8--8--8--8--8-|
A|-8-8-8-8-8-8-8-8-8-8-8-8-8-8-8-8-8-8-8-8-8-8-8-8-8-8-8-8--*****-----------------------8--8--8--8--8--8-|
E|-6-6-6-6-6-6-6-6-6-6-6-6-6-6-6-6-6-6-6-6-6-6-6-6-6-6-6-6--*****-----------------------6--6--6--6--6--6-|
00:00 / 00:00
Otros videos de esta canción
Repetir
Otros videos de esta canción
49 exhibiciones
    • ½ Tono
    • A
    • Bb
    • B
    • C
    • Db
    • D
    • Eb
    • E
    • F
    • F#
    • G
    • Ab
  • Agregar a la lista

Afinación de cifrado

Afinador online

    00:00 / 00:00
    OK