Cifra Club

Vistiendo

Catupecu Machu

Cifrado: Principal (guitarra y guitarra eléctrica)
tono: Db

GUITARRA (todo el tema)
   Ebm7(9)         Ab7sus4(13)       Ebm7(9)         Ab7sus4(13)
E|---------------------------------|---------------------------------|
B|-----------6-6-6-----------6-6-6-|-----------6-6-6-----------6-6-6-|
G|-----------6-6-6-----------6-6-6-|-----------6-6-6-----------6-6-6-|
D|-----------4-4-4-----------4-4-4-|-----------4-4-4-----------4-4-4-|
A|-6-6-6-6-6-6-6-6-----------6-6-6-|-6-6-6-6-6-6-6-6-----------6-6-6-|
E|-----------4-4-4-4-4-4-4-4-4-4-4-|-----------4-4-4-4-4-4-4-4-4-4-4-|
E|---PM--/| ---PM--/         ---PM--/       ---PM--/

BAJO (entra en el min 1:32)
G|-------------------------------|-------------------------------|
D|-----6-----6-8-6-4-------------|-----6-----6-8-6-4-------------|
A|---6-----6---------8-6-3-4-6-6-|---6-----6---------8-6-3-4-6-6-|
E|-4-----4-----------------------|-4-----4-----------------------|


Ebm7(9)   Ab7sus4(13)
        y si estas vistiendo
Ebm7(9)  Ab7sus4(13)  Ebm7(9)  Ab7sus4(13)
con espinas a tu pecho, hoy
Ebm7(9)   Ab7sus4(13)
  como    dandote
  Ebm7(9)  Ab7sus4(13)
por cierto que el dolor
Ebm7(9)  Ab7sus4(13)  Ebm7(9)  Ab7sus4(13)
es acierto para poder llegar

Ebm7(9)   Ab7sus4(13)

ese estante repleto
con tus propios duelos
son las migas
que dejaste para poder volver

oh, oh oh oh oh oh
oh, oh oh

solo agua y sol tratando
de ir a lo mas alto
pero en vuelo, si no ves viendo
el cielo aterrizo

Ebm7(9)  Ab7sus4(13)        Ebm7(9)   Ab7sus4(13)
oh!                   cuantas redes
Ebm7(9)  Ab7sus4(13)      Ebm7(9)   Ab7sus4(13)
sobre                 tus sienes
Ebm7(9)  Ab7sus4(13)       Ebm7(9)   Ab7sus4(13)
oh!                   calma viene
Ebm7(9)  Ab7sus4(13)          Ebm7(9)   Ab7sus4(13)
une                   mis mil seres

deja ya de estar buscando
mas formas de atraso
y siente que en rio se convierte
el velo que te cego

paso algo inesperado
y el tiempo que ha pasado
converge, pues si miente
que al fin un dia surgio

oh! cuantas redes
sobre tus sienes
oh! calma viene
une mis mil seres


  Ebm7(9)         Ab7sus4(13)
E|------| ------
  ||||||            ||||||
  ||||||            ||||||
  ||||||            ||||||
  x====x            ======
  ||||||            ||||||
  |o|oo|            |o|oo|
  ||||||            ||||||
  ||||||            ||||||
Composición de G. Ruiz Díaz, M. Sosa
1 vistas
    • ½ Tono
    • A
    • Bb
    • B
    • C
    • Db
    • D
    • Eb
    • E
    • F
    • F#
    • G
    • Ab
  • Agregar a la lista

    0 comentarios

    Ver todos los comentarios

    ¿Lograste tocar?

    0 Tocaron 0 Aún no

    ¡Graba un video tocando Vistiendo y envíanoslo!

    00:00 / 00:00
    Outros vídeos desta música
    Repetir Calidad Automático
    Outros vídeos desta música
    00:00 / 00:00
    Automático
    OK