Cifra Club

Popcorn

Mad Caddies

Tab de bajo: Principal
Intro / Verso:
G|--------------------|-----------------------------------|
D|*--------2-2-2---2-*|--------4-4-4-0-4--------0-0-0-----|
A|*-0-0--0-------4---*|-2-2--2-----------2-2--2-------4-2-|
E|--------------------|-----------------------------------|

Another year is gone...
G|----------------------------------------1-1-1----------4-2-|
D|-0-0--0-4-4-4-2-0----------------2-2--2-------4-2-2--2-----|
A|------------------0-0--0-----4-4---------------------------|
E|-------------------------2-2-------------------------------|
         My body's aching...
G|-----2-----------------------------------------------------|
D|-2h4----0-0-0-4-4-5-5-7------------------------------------|
A|------------------------0-0-0-4-4-5-5-7-------4-4-5-4-0----|
E|----------------------------------------2-2-2-----------0~-|

G|-----------------------------------------------------------|
D|--------2-2-2---2--------2---------------------------------|
A|-0-0--0-------4---2-2--2---4-2-0---------------------------|
E|-----------------------------------------------------------|

G|------------------------------------------------|
D|------------------------------------------------|
A|-0-0-0-4-4-5-5-7-------4-4-5-4-0-2-2--2------0~-|
E|-----------------2-2-2------------------0--0----|
00:00 / 00:00
Otros videos de esta canción
Repetir
Otros videos de esta canción
Compositor no encontrado.
Colaboración y revisión:
  • Jefferson Sousa
8 vistas

0 comentarios

Ver todos los comentarios

¿Lograste tocar?

0 Tocaron 0 Aún no

¡Graba un video tocando Popcorn y envíanoslo!

00:00 / 00:00
OK