Cifra Club

Im Above

Mad Season

Cifrado: Principal (guitarra y guitarra eléctrica)
Selo Cifra Club: esta cifra foi revisada para atender aos critérios oficiais da nossa Equipe de Qualidade.
tono: D
Intro:
E|---------------------------|
B|---------------------------|
G|---------------------------|
D|---2--x-2-2------0---------|
A|---2--x-2-2--0h2-----------|
E|---0--x-0-0----------------|


Verse:
E|------0---0---0---3---3--0---0------0---0--0---0-0----0--0--0--0-0-0----|
B|------0---0-0-0---3---3--0-0-0-0-0--0---0--0---0-0----0--0--0--0-0-0----|
G|--0---0---0-0-0---0---0--0-0-0-0-0--2---2--2-2-2-2-2--0--0--0--0-0-0-0--|
D|--2---2---2-2-2---0---0----0---0-0--2---2----2-----2--2--2-----2-----0--|
A|--2---------2-----2---2----2--------0---0----0-----0--0--0--------------|
E|--0---------------3---3-------------------------------------------------|



verse ending variations:
             (right before riff)                  (end chord)
E|-----------|--------------------|--------------|--------------|
B|-----------|--0---0-0-0--0------|--------------|---0----------|
G|-----0-----|--2---2-2-2--2------|--------------|---2----------|
D|---2---0---|--2---2-2-2--2------|--2p0-----0---|---2----------|
A|---0---0---|--0---0-0-0--0------|--2p0--2------|---0----------|
E|-----------|----------------5b--|--------------|--------------|


Prechorus:
E|--------------------------------------------------|
B|--------------------------------------------------|
G|--------------------------------------------------|
D|----------9----------------------9----------------|
A|----------7---5/7--7--5----------7---7-9--x-12----|
E|--0-0-0-0-----3/5--5--3--0-0-0-0-----5-7--x-10----|
PM........                .......


Chorus:
E|----------------------------------------------------------------------------|
B|--3-3-3---2-2-2-0------3-3-----2-2-0-0---------3----2-2---0-------3----2----|
G|--3-3-3---2-2-2-0------3-3-----2-2-0-0---------3----2-2---0-------3----2----|
D|--x-x-x---x-x-x-2------x-x-----x-x-0-2--------------x-x---2-------x----x----|
A|--3-3-3-3-2-2-2-2------3-3-3-3-2-2---2-------3----0-2-2-0-2-------3----2----|
E|----------------0--------------------0--------------------0-----------------|

Solo:
E|-----------------------------------------------------------------------------------|
B|-----------------------------------------------------------------------------------|
G|--9----9----9h11-12----12---12-11b'-9~-----12-11b'-9~--7-9-7h9-9-9--9-9--9-9-7-9---|
D|-----------------------------------------------------------------------------------|
A|-----------------------------------------------------------------------------------|
E|-----------------------------------------------------------------------------------|

E|-------------------------0-------0-----0---------------------|
B|-----------------------------0-------0-----0---0---0---------|
G|-------------------------------------------------------------|
D|-9--9--9--9-9--9-9p7-5-7---7---7---7-----7---7---7---7--7-5--|
A|-------------------------------------------------------------|
E|-------------------------------------------------------------|

Verse

Prechorus

Chorus

Fills:
E|-------------|--3p0---0---0------|------12--------------|-----------------------------|
B|-------------|------0---0---3p0--|--15b----15-12--------|-----------------------------|
G|--0----------|-------------------|---------------14-12--|--2br-0---0------------------|
D|--0--7br--5--|-------------------|----------------------|--------2----0h2p0h2p0h2-----|
A|--0----------|-------------------|----------------------|-----------------------------|
E|-------------|-------------------|----------------------|-----------------------------|


************************************

| /   slide up
| \   slide down
| h   hammer-on
| p   pull-off
| ~   vibrato
| +   harmonic
| x   Mute note
| b   Bend
| pb  Pre-bend
| br  Bend release
| pbr Pre-bend release
| brb Bend release bend
| b'  slight bend
| PM  palm mute
************************************
Otros videos de esta canción
    4 exhibiciones
      • ½ Tono
      • A
      • Bb
      • B
      • C
      • Db
      • D
      • Eb
      • E
      • F
      • F#
      • G
      • Ab
    • Agregar a la lista

    Afinação da cifra

    Afinador online

      Ops (: Contenido disponible solo en portugués.
      OK