Cifra Club

Futuro

Mae

Tab de bajo: Principal
Tabber: 	Paul Welsh
You can contact me at W*
This Song is played in standard tuning (EADG)

Intro
G|----------------------|
D|----------------------|
A|----------------------|
E|---9-9-9--9--9-9-9-9--|

Riff A
G|--------------------------|
D|--------------------------|
A|--h0----------------------|
E|------9-9-9--9--9-9-9-9---|

Extension A
G|------------------------------------------------------|
D|------------------------------------------------------|
A|--h0--------------------------------------------------|
E|------9-9-9--9--9-9-9-9-------------------h11-h12-----|

Riff B
G|--------------------------|
D|--------------------------|
A|--h0----------------------|
E|------5-5-5--5--5-5-5-5---|

Chorus
G|---------------------------------------------------------------------------------|
D|---------------------------------------------------------------------------------|
A|---------------------------------------------------------------------------------|
E|---5-5-5-5-5-5-5-5--7-7-7-7-7-7-7-7--9-9-9-9-9-9-9-9--11-11-11-11-11-11-11-11----|

Chorus Out
G|----------------------------------------------------------|
D|----------------------------------------------------------|
A|----------------------------------------------------------|
E|---5-5-5-5-5-5-5-5--7-7-7-7-7-7-7-7--9-9-9--9--9-9-9-9----|

Order
(Warning, this is a long one, you may want to print this out seperately since there are so many changes)
Intro	:14	x1
Riff A	:17	x1
Riff B	:20	x2
Riff A	:28	x2
Riff B	:35	x2
Riff A	:43	x2
Riff B	:50	x2
Riff A	:58	x2
Riff B	1:05	x2
Chorus	1:12	x3
Chorus Out	 1:34	x1
Ext A	1:41	x1
Riff B	1:47	x2
Riff A	1:52	x1
Ext A	1:55	x1
Riff B	1:59	x2
Riff A	2:07	x1
Ext A	2:10	x1
Riff B	2:14	x2
Riff A	2:20	x1
Ext A	2:24	x1
Riff B	2:28	x2
Chorus	2:35	x4
End	3:04
Compositor no encontrado.
9 vistas

0 comentarios

Ver todos los comentarios

¿Lograste tocar?

0 Tocaron 0 Aún no

¡Graba un video tocando Futuro y envíanoslo!

00:00 / 00:00
Otros videos de esta canción
Repetir Calidad Automático
Otros videos de esta canción
00:00 / 00:00
Automático
OK