Cifra Club

Goodbye Goodnight

Mae

Cifrado: Principal (guitarra y guitarra eléctrica)
tono: E
Tabbed by: Andrew Chiesa
Email: *

I'm sure there are other ways to play this, but this sounds correct to me.
Other than the second part of the verse, I'm sure about the song.  Please,
if this is wrong, just e-mail me and tell me what to correct, or use this
as a basis for a new tab.  Thanks and enjoy.

Tuning: Standard

INTRO
e|-------------------------------------------------------------------------|
B|-------------------------------------------------------------------------|
G|-11-----4-----11-----6-----11-----4-----11-----6-----4-------------------|
D|-x--x3--x-x1--x--x4--x-x3--x--x8--x-x1--x--x2--x-x2--x-x8----------------|
A|-9------2-----9------4-----9------2-----9------4-----2-------------------|
E|-------------------------------------------------------------------------|

VERSE: PART 1
e|-------------------------------------------------------------------------|
B|-------------------------------------------------------------------------|
G|-4---------4--------------4---------4------------------------------------|
D|-4-x3-2----2-x4-4----6----4-x3-2----4-x2-4----2--------------------------|
A|-2----2-x1-2----4-x3-6-x5-2----2-x1-2----4-x2-2-x8-----------------------|
E|------0---------2----4---------0---------2----0--------------------------|

VERSE: PART 2
e|----00-0---------22-2---------22-----------22----------------------------|
B|------0-00---------0-00---------2244---------0---------------------------|
G|0-00---------0-00---------0-00---------0-00------------------------------|
D|-------------------------------------------------------------------------|
A|-------------------------------------------------------------------------|
E|-------------------------------------------------------------------------|

CHORUS
e|-------------------------------------------------------------------------|
B|-------------------------------------------------------------------------|
G|-11-----4-----11-----6-----11-----4-----11-----6-----4-------------------|
D|-x--x3--x-x1--x--x4--x-x3--x--x8--x-x1--x--x2--x-x2--x-x8----------------|
A|-9------2-----9------4-----9------2-----9------4-----2-------------------|
E|-------------------------------------------------------------------------|

BRIDGE: PART 2
e|-------------------------------------------------------------------------|
B|-------------------------------------------------------------------------|
G|-4---------4--------------4---------4------------------------------------|
D|-4-x3-2----2-x4-4----6----4-x3-2----4-x2-4----2--------------------------|
A|-2----2-x1-2----4-x3-6-x5-2----2-x1-2----4-x2-2-x8-----------------------|
E|------0---------2----4---------0---------2----0--------------------------|

For the INTRO/CHORUS, you can keep stroking very fast playing all muted
strings between notes and you kind of get the sound they have with this song, or u can
play each note in time with the song. The first part of the verse should be played very
 I still can't figure out all of the first part of the bridge, so if you know it, please 
this, or e-mail me.

| /  slide up
| \  slide down
| h  hammer-on
| p  pull-off
| ~  vibrato
| +  harmonic
| x  Mute note
============================================================================
00:00 / 00:00
Otros videos de esta canción
Repetir
Otros videos de esta canción
Compositor no encontrado.
7 vistas
    • ½ Tono
    • A
    • Bb
    • B
    • C
    • Db
    • D
    • Eb
    • E
    • F
    • F#
    • G
    • Ab
  • Agregar a la lista

    0 comentarios

    Ver todos los comentarios

    ¿Lograste tocar?

    0 Tocaron 0 Aún no

    ¡Graba un video tocando Goodbye Goodnight y envíanoslo!

    00:00 / 00:00
    OK