Cifra Club

Ocean

Mae

Tab de bajo: Principal
Album: The Everglow
Tabbed by: Kmilongo (*)
Tuning: Standard 4-string (GDAE)

Chorus (Bass starts at 0:36)

G|--------------------|
D|--------------------|
A|6(x16)-3(x16)-------|
E|--------------4(x16)|

Verse (0:52)

G|-----------------------------------|
D|-----------------------------------|
A|3(x8)-------------3(x8)-1(x3)------|
E|------1(x3)-4(x5)-------------1(x5)| (x3)

Chorus (1:23)

G|--------------------|
D|--------------------|
A|6(x16)-3(x16)-------|
E|--------------4(x16)| (x2)

Bridge (1:54, pay close attention to the last part!)

G|-------------------------------------------------------------|
D|-------------------------------------------------------------|
A|------------3(x8)-1(x8)---------------3(x8)-1(x3)-----1------|
E|1(x8)-4(x8)-------------4-1(x8)-4(x8)-------------0-----0(x3)|

Chorus (2:15)

G|--------------------|
D|--------------------|
A|6(x16)-3(x16)-------|
E|--------------4(x16)| (x4)

Play this note before the outro (3:19)

G|-----------------------------------------------|
D|6---6-6---6-6---6-6---6-6---6-6---6-6---6-6---6|
A|-----------------------------------------------|
E|-----------------------------------------------|

Outro (3:30)

G|------------------|
D|-------6(x8)-8(x8)|
A|6(x16)------------|
E|------------------| (x5)
  ^
  |song ends with this note (6~)


Please rate my tab! Your support is appreciated =)
Any suggestions to *
Composición de Mae
10 vistas

0 comentarios

Ver todos los comentarios

¿Lograste tocar?

0 Tocaron 0 Aún no

¡Graba un video tocando Ocean y envíanoslo!

00:00 / 00:00
Otros videos de esta canción
Repetir Calidad Automático
Otros videos de esta canción
00:00 / 00:00
Automático
OK