Cifra Club

Sun And The Moon

Mae

Cifrado: Principal (guitarra y guitarra eléctrica)
tono: F#
Standard Tuning: EADGBE
i think its right...i was listening to it the whole time...
[7:16]
its easy...as crap...but yah...
*

dont know when exactly it starts...
intro
e|------6-------------|
B|-------------6------|
G|--------------------|
D|--------------------|
A|--------------------| [[x2]]
E|--------------------|

[[[verse 1]]]
e|------6-------------|      |-------6--------|
B|-------------6------|      |----------------|
G|--------------------|      |----------------|
D|--------------------|[[x4]]|----------------|[[end it with this]]
A|--------------------|      |----------------|
E|--------------------|      |----------------|

then stop for the piano...orchestra thing...

then again...
[[[verse 2]]]
e|------6-------------6------|
B|-------------6-------------|
G|---------------------------|
D|---------------------------|
A|---------------------------|
E|---------------------------|

then the piano thing with the orchestra...wait for him to finish singing...and then wait 
the piano breakdown...
then...

[[[breakdown]]]
hi-hat is playing
e|----------------------6---6--[x2]-|
B|------------------------4---------|you go and find out how many times they
G|-8-->10--8---10--10--8---
00:00 / 00:00
Otros videos de esta canción
Repetir
Otros videos de esta canción
Composición de Mae
39 vistas
    • ½ Tono
    • A
    • Bb
    • B
    • C
    • Db
    • D
    • Eb
    • E
    • F
    • F#
    • G
    • Ab
  • Agregar a la lista

    0 comentarios

    Ver todos los comentarios

    ¿Lograste tocar?

    0 Tocaron 0 Aún no

    ¡Graba un video tocando Sun And The Moon y envíanoslo!

    00:00 / 00:00
    OK