Cifra Club

Suspension

Mae

Cifrado: Versão 4 (guitarra y guitarra eléctrica)
tono: Bb
 

 

Gtr I (Eb Ab Db Gb Bb Eb)
Gtr II (Eb Ab Db Gb Bb Eb)
Gtr III (Eb Ab Db Gb Bb Eb) 
Gtr IV (Eb Ab Db Gb Bb Eb)
Gtr V (Eb Ab Db Gb Bb Eb)
Gtr VI (Eb Ab Db Gb Bb Eb)




   Intro:

   Guitar 1:
|--------------7---|-------------7---|-------------7---|-------------7----|
|o-5-7-5---5-7---7-|-5-7-5---5-7---7-|-5-7-5---5-7---7-|-5-7-5---5-7---7-o|
|--------4---------|-------4---------|-------4---------|-------4----------|
|------------------|-----------------|-----------------|------------------|
|o-----------------|-----------------|-----------------|-----------------o|
|------------------|-----------------|-----------------|------------------|

Guitar 2:
|------------------|--------------------|
|-0-5-7-0-12-0-7-9-|--0--5-7-0-10-9-7-5-|
|------------------|--------------------|
|------------------|--------------------|
|------------------|--------------------|
|------------------|--------------------|

 Guitar 3:
|------------------|--------------------|
|------------------|--------------------|
|-9---9----9---9-9-|-(9)-9-9----9-9-9-9-|
|-9---9----9---9-9-|-(9)-9-9----9-9-9-9-|
|-7---7----7---7-7-|-(7)-7-7----7-7-7-7-|
|-0---0----0---0-0-|-(0)-0-0----0-0-0-0-|

|------------------|---------------------|
|-0-5-7-0-12-0-7-9-|--0--5-7-0-10-9-7-5--|
|------------------|---------------------|
|------------------|---------------------|
|------------------|---------------------|
|------------------|---------------------|

|------------------|---------------------|
|------------------|---------------------|
|-9---9----9---9-9-|-(9)-9-9----9-9-9-9--|
|-9---9----9---9-9-|-(9)-9-9----9-9-9-9--|
|-7---7----7---7-7-|-(7)-7-7----7-7-7-7--|
|-0---0----0---0-0-|-(0)-0-0----0-0-0-0--|

|------------------|--------------------|
|-0-5-7-0-12-0-7-9-|--0--5-7-0-10-9-7-5-|
|------------------|--------------------|
|------------------|--------------------|
|------------------|--------------------|
|------------------|--------------------|

|------------------|--------------------|
|------------------|--------------------|
|-6---6----6---6-6-|-(6)-6-6----6-6-6-6-|
|-6---6----6---6-6-|-(6)-6-6----6-6-6-6-|
|-4---4----4---4-4-|-(4)-4-4----4-4-4-4-|
|------------------|--------------------|

|------------------|---------------------|
|-0-5-7-0-12-0-7-9-|--0--5-7-0-10-9-7-5--|
|------------------|---------------------|
|------------------|---------------------|
|------------------|---------------------|
|------------------|---------------------|

|------------------|---------------------|
|------------------|---------------------|
|-4---4----4---4-4-|-(4)-4-4----4-4-4-4--|
|-4---4----4---4-4-|-(4)-4-4----4-4-4-4--|
|-2---2----2---2-2-|-(2)-2-2----2-2-2-2--|
|------------------|---------------------|

|----------|--------|
|-0--------|-(0)----|
|----------|--------|
|----------|--------|
|----------|--------|
|----------|--------|

|----------|--------|
|----------|--------|
|-9--------|-(9)----|
|-9--------|-(9)----|
|-7--------|-(7)----|
|-0--------|-(0)----|


 Verse:
  Guitar 2:

|---------------|------------|----------------|---------|
|-5-------(5)-7-|-(7)--------|-9-------(9)-10-|-(10)----|
|---------------|------------|----------------|---------|
|---------------|------------|----------------|---------|
|---------------|------------|----------------|---------|
|---------------|------------|----------------|---------|

|---------------|------------|---------------|--------|
|-5-------(5)-7-|-(7)--------|-4-------(4)-5-|-(5)----|
|---------------|------------|---------------|--------|
|---------------|------------|---------------|--------|
|---------------|------------|---------------|--------|
|---------------|------------|---------------|--------|


 Pre-Chorus:

  PM--------------------------|
|-----------------|-----------------------|
|-----------------|-----------------------|
|-----8---6-------|-----9---8-------11-13-|
|-------------6---|---------------9-------|
|-0-0---0---0---0-|--0----0----0----------|
|-----------------|-----------------------|

    
Guitar 5:
|---------0-0-----|---------0-(0)-0-------|
|-------------0---|-(0)--------------0----|
|-----------------|-----------------------|
|-----------------|-----------------------|
|-----------------|-----------------------|
|-----------------|-----------------------|

 Guitar 4:
|-0---0---0-0-0-0-|-(0)-0-0----0--0--0--0-|
|-0---0---0-0-0-0-|-(0)-0-0----0--0--0--0-|
|-2---2---2-2-2-2-|-(2)-2-2----2--2--2--2-|
|-2---2---2-2-2-2-|-(2)-2-2----2--2--2--2-|
|-0---0---0-0-0-0-|-(0)-0-0----0--0--0--0-|
|-----------------|-----------------------|

   PM-------------|
|-------------------|--------------------|
|-------------------|--------------------|
|-------8---6-------|---------6-------4--|
|---------------6-9-|-------6-------4----|
|--0--0---0---0-----|-----4-------2------|
|-------------------|--------------------|

|-----------0-0-----|--------------------|
|-(0)-----------0---|-(0)----------------|
|-------------------|--------------------|
|-------------------|--------------------|
|-------------------|--------------------|
|-------------------|--------------------|

|--0----0---0-0-0-0-|-----0-0-0---0-0-0--|
|--0----0---0-0-0-0-|-----0-0-0---0-0-0--|
|--2----2---2-2-2-2-|-----6-6-6---4-4-4--|
|--2----2---2-2-2-2-|-----6-6-6---4-4-4--|
|--0----0---0-0-0-0-|-----4-4-4---2-2-2--|
|-------------------|--------------------|

  PM--------------------------|
|-----------------|-----------------------|
|-----------------|-----------------------|
|-----8---6-------|-----9---8-------11-13-|
|-------------6---|---------------9-------|
|-0-0---0---0---0-|--0----0----0----------|
|-----------------|-----------------------|

|---------0-0-----|---------0-(0)-0-------|
|-------------0---|-(0)--------------0----|
|-----------------|-----------------------|
|-----------------|-----------------------|
|-----------------|-----------------------|
|-----------------|-----------------------|

|-0---0---0-0-0-0-|-(0)-0-0----0--0--0--0-|
|-0---0---0-0-0-0-|-(0)-0-0----0--0--0--0-|
|-2---2---2-2-2-2-|-(2)-2-2----2--2--2--2-|
|-2---2---2-2-2-2-|-(2)-2-2----2--2--2--2-|
|-0---0---0-0-0-0-|-(0)-0-0----0--0--0--0-|
|-----------------|-----------------------|


                      
                          Guitar 2:
   PM---------|
|-------------------|------------------|------------------|
|-------------------|------------------|------------------|
|-------8---6-------|-----6-6-6---4-4--|---6-6-6-8-8-8-8--|
|---------------6-9-|-----6-6-6---4-4--|---6-6-6-9-9-9-9--|
|--0--0---0---0-----|-----4-4-4---2-2--|---4-4-4-6-6-6-6--|
|-------------------|------------------|------------------|

                       Guitar 3:
|-----------0-0-----|------------------|------------------|
|-(0)-----------0---|-(0)--------------|------------------|
|-------------------|-----6-6-6---4-4--|---6-6-6-8-8-8-8--|
|-------------------|-----6-6-6---4-4--|---6-6-6-9-9-9-9--|
|-------------------|-----4-4-4---2-2--|---4-4-4-6-6-6-6--|
|-------------------|------------------|------------------|

|--0----0---0-0-0-0-|
|--0----0---0-0-0-0-|
|--2----2---2-2-2-2-|
|--2----2---2-2-2-2-|
|--0----0---0-0-0-0-|
|-------------------|

 Chorus:
|-----------------|---------------------|
|-----------------|---------------------|
|-9-9-9-9-9-9-9-9-|-11-11-11-11-8-8-8-8-|
|-----------------|---------------------|
|-7-7-7-7-7-7-7-7-|--9--9--9--9-6-6-6-6-|
|-----------------|---------------------|

|-----------------|---------------------|
|-----------------|---------------------|
|-9-9-9-9-9-9-9-9-|--9--9--9--9-9-9-9-9-|
|-9-9-9-9-9-9-9-9-|--9--9--9--9-9-9-9-9-|
|-7-7-7-7-7-7-7-7-|--7--7--7--7-7-7-7-7-|
|-0-0-0-0-0-0-0-0-|--0--0--0--0-0-0-0-0-|

|-----------------|----------------------|
|-----------------|----------------------|
|-9-9-9-9-9-9-9-9-|-11-11-11-11-8-8-8-8--|
|-----------------|----------------------|
|-7-7-7-7-7-7-7-7-|--9--9--9--9-6-6-6-6--|
|-----------------|----------------------|

|-----------------|----------------------|
|-----------------|----------------------|
|-2-2-2-2-2-2-2-2-|--2--2--2--2-2-4-4-4--|
|-2-2-2-2-2-2-2-2-|--2--2--2--2-2-4-4-4--|
|-0-0-0-0-0-0-0-0-|--0--0--0--0-0-2-2-2--|
|-----------------|----------------------|

|-----------------|-----------------|---------4-------|-5-------7--------|
|-----------------|-----------------|-0-2-2-0---5-4-0-|---5-4-0---5-5-4--|
|-6-6-6-6-6-6-6-6-|-8-8-8-8-8-8-8-8-|-----------------|------------------|
|-----------------|-----------------|-----------------|------------------|
|-4-4-4-4-4-4-4-4-|-6-6-6-6-6-6-6-6-|-----------------|------------------|
|-----------------|-----------------|-----------------|------------------|

|-----------------|-----------------|-----------------|------------------|
|-----------------|-----------------|-----------------|------------------|
|-6-6-6-6-6-6-6-6-|-4-4-4-4-4-4-4-4-|-2-----4-4---6---|-8---8---9---9----|
|-6-6-6-6-6-6-6-6-|-4-4-4-4-4-4-4-4-|-2-----4-4---6---|-9---9---9---9----|
|-4-4-4-4-4-4-4-4-|-2-2-2-2-2-2-2-2-|-0-----2-2---4---|-6---6---7---7----|
|-----------------|-----------------|-----------------|------------------|


 Verse:

  Guitar 4:
|----0--0-0-0-0-|-(0)-0-0--0-0-0-0-|-0--0--0-0-0-0-|-(0)-0-0--0-0-0-0--|
|----0--0-0-0-0-|-(0)-0-0--0-0-0-0-|-0--0--0-0-0-0-|-(0)-0-0--0-0-0-0--|
|-9--9--9-9-9-9-|-(9)-9-9--9-9-9-9-|-4--4--4-4-4-4-|-(4)-4-4--4-4-4-4--|
|-9--9--9-9-9-9-|-(9)-9-9--9-9-9-9-|-2--2--2-2-2-2-|-(2)-2-2--2-2-2-2--|
|-7--7--7-7-7-7-|-(7)-7-7--7-7-7-7-|---------------|-------------------|
|---------------|------------------|-4--4--4-4-4-4-|-(4)-4-4--4-4-4-4--|

Guitar 5:
|-2--4--0-------|------------------|-2--4--7-------|-(7)---------------|
|-----------0---|-(0)--------------|---------------|-------------------|
|---------------|------------------|---------------|-------------------|
|---------------|------------------|---------------|-------------------|
|---------------|------------------|---------------|-------------------|
|---------------|------------------|---------------|-------------------|

|-0--0--0-0-0-0-|-(0)-0-0--0-0-0-0-|-0--0--0-0-0-0-|-(0)-0-0--0-0-0-0--|
|-0--0--0-0-0-0-|-(0)-0-0--0-0-0-0-|-0--0--0-0-0-0-|-(0)-0-0--0-0-0-0--|
|-6--6--6-6-6-6-|-(6)-6-6--9-6-6-6-|-4--4--4-4-4-4-|-(4)-4-4--4-4-4-4--|
|-6--6--6-6-6-6-|-(6)-6-6--6-6-6-6-|-4--4--4-4-4-4-|-(4)-4-4--4-4-4-4--|
|-4--4--4-4-4-4-|-(4)-4-4--4-4-4-4-|-2--2--2-2-2-2-|-(2)-2-2--2-2-2-2--|
|---------------|------------------|---------------|-------------------|

|-2--4--0-------|------------------|-2--4----------|-------------------|
|-----------0---|-(0)--------------|-------4-------|-(4)---------------|
|---------------|------------------|---------------|-------------------|
|---------------|------------------|---------------|-------------------|
|---------------|------------------|---------------|-------------------|
|---------------|------------------|---------------|-------------------|



 Pre-Chorus:
  Guitar 2:
  PM--------------------------|
|-----------------|-----------------------|
|-----------------|-----------------------|
|-----8---6-------|-----9---8-------11-13-|
|-------------6---|---------------9-------|
|-0-0---0---0---0-|--0----0----0----------|
|-----------------|-----------------------|

|---------0-0-----|---------0-(0)-0-------|
|-------------0---|-(0)--------------0----|
|-----------------|-----------------------|
|-----------------|-----------------------|
|-----------------|-----------------------|
|-----------------|-----------------------|

Guitar 4:
|-0---0---0-0-0-0-|-(0)-0-0----0--0--0--0-|
|-0---0---0-0-0-0-|-(0)-0-0----0--0--0--0-|
|-2---2---2-2-2-2-|-(2)-2-2----2--2--2--2-|
|-2---2---2-2-2-2-|-(2)-2-2----2--2--2--2-|
|-0---0---0-0-0-0-|-(0)-0-0----0--0--0--0-|
|-----------------|-----------------------|

   PM-------------|
|-------------------|--------------------|
|-------------------|--------------------|
|-------8---6-------|---------6-------4--|
|---------------6-9-|-------6-------4----|
|--0--0---0---0-----|-----4-------2------|
|-------------------|--------------------|

|-----------0-0-----|--------------------|
|-(0)-----------0---|-(0)----------------|
|-------------------|--------------------|
|-------------------|--------------------|
|-------------------|--------------------|
|-------------------|--------------------|

|--0----0---0-0-0-0-|-----0-0-0---0-0-0--|
|--0----0---0-0-0-0-|-----0-0-0---0-0-0--|
|--2----2---2-2-2-2-|-----6-6-6---4-4-4--|
|--2----2---2-2-2-2-|-----6-6-6---4-4-4--|
|--0----0---0-0-0-0-|-----4-4-4---2-2-2--|
|-------------------|--------------------|

  PM--------------------------|
|-----------------|-----------------------|
|-----------------|-----------------------|
|-----8---6-------|-----9---8-------11-13-|
|-------------6---|---------------9-------|
|-0-0---0---0---0-|--0----0----0----------|
|-----------------|-----------------------|

|---------0-0-----|---------0-(0)-0-------|
|-------------0---|-(0)--------------0----|
|-----------------|-----------------------|
|-----------------|-----------------------|
|-----------------|-----------------------|
|-----------------|-----------------------|

|-0---0---0-0-0-0-|-(0)-0-0----0--0--0--0-|
|-0---0---0-0-0-0-|-(0)-0-0----0--0--0--0-|
|-2---2---2-2-2-2-|-(2)-2-2----2--2--2--2-|
|-2---2---2-2-2-2-|-(2)-2-2----2--2--2--2-|
|-0---0---0-0-0-0-|-(0)-0-0----0--0--0--0-|
|-----------------|-----------------------|

   PM-------------|
|-------------------|------------------|
|-------------------|------------------|
|-------8---6-------|-----6-6-6---4-4--|
|---------------6-9-|-----6-6-6---4-4--|
|--0--0---0---0-----|-----4-4-4---2-2--|
|-------------------|------------------|

Guitar 3:
|-----------0-0-----|------------------|
|-(0)-----------0---|-(0)--------------|
|-------------------|-----6-6-6---4-4--|
|-------------------|-----6-6-6---4-4--|
|-------------------|-----4-4-4---2-2--|
|-------------------|------------------|

|--0----0---0-0-0-0-|
|--0----0---0-0-0-0-|
|--2----2---2-2-2-2-|
|--2----2---2-2-2-2-|
|--0----0---0-0-0-0-|
|-------------------|

Chorus:
|-----------------|---------------------|
|-----------------|---------------------|
|-9-9-9-9-9-9-9-9-|-11-11-11-11-8-8-8-8-|
|-----------------|---------------------|
|-7-7-7-7-7-7-7-7-|--9--9--9--9-6-6-6-6-|
|-----------------|---------------------|

|-----------------|---------------------|
|-----------------|---------------------|
|-9-9-9-9-9-9-9-9-|--9--9--9--9-9-9-9-9-|
|-9-9-9-9-9-9-9-9-|--9--9--9--9-9-9-9-9-|
|-7-7-7-7-7-7-7-7-|--7--7--7--7-7-7-7-7-|
|-0-0-0-0-0-0-0-0-|--0--0--0--0-0-0-0-0-|

|-----------------|----------------------|
|-----------------|----------------------|
|-9-9-9-9-9-9-9-9-|-11-11-11-11-8-8-8-8--|
|-----------------|----------------------|
|-7-7-7-7-7-7-7-7-|--9--9--9--9-6-6-6-6--|
|-----------------|----------------------|

|-----------------|----------------------|
|-----------------|----------------------|
|-2-2-2-2-2-2-2-2-|--2--2--2--2-2-4-4-4--|
|-2-2-2-2-2-2-2-2-|--2--2--2--2-2-4-4-4--|
|-0-0-0-0-0-0-0-0-|--0--0--0--0-0-2-2-2--|
|-----------------|----------------------|

|-----------------|-----------------|
|-----------------|-----------------|
|-6-6-6-6-6-6-6-6-|-8-8-8-8-8-8-8-8-|
|-----------------|-----------------|
|-4-4-4-4-4-4-4-4-|-6-6-6-6-6-6-6-6-|
|-----------------|-----------------|

|-----------------|-----------------|
|-----------------|-----------------|
|-6-6-6-6-6-6-6-6-|-4-4-4-4-4-4-4-4-|
|-6-6-6-6-6-6-6-6-|-4-4-4-4-4-4-4-4-|
|-4-4-4-4-4-4-4-4-|-2-2-2-2-2-2-2-2-|
|-----------------|-----------------|

|-------------------------|------------------|
|-------------------------|------------------|
|-16-16-16-16-16-16-16-16-|---4-4-4-------4--|
|-------------------------|---4-4-4---4-4-4--|
|-14-14-14-14-14-14-14-14-|---2-2-2---4-4-2--|
|-------------------------|-----------2-2----|

|-------------------------|------------------|
|-------------------------|------------------|
|--2--2--2--2--2--2--2--2-|---4-4-4-------4--|
|--2--2--2--2--2--2--2--2-|---4-4-4---4-4-4--|
|--0--0--0--0--0--0--0--0-|---2-2-2---4-4-2--|
|-------------------------|-----------2-2----|

|-----------------|---------------------|
|-----------------|---------------------|
|-9-9-9-9-9-9-9-9-|-11-11-11-11-8-8-8-8-|
|-----------------|---------------------|
|-7-7-7-7-7-7-7-7-|--9--9--9--9-6-6-6-6-|
|-----------------|---------------------|

|-----------------|---------------------|
|-----------------|---------------------|
|-9-9-9-9-9-9-9-9-|--9--9--9--9-9-9-9-9-|
|-9-9-9-9-9-9-9-9-|--9--9--9--9-9-9-9-9-|
|-7-7-7-7-7-7-7-7-|--7--7--7--7-7-7-7-7-|
|-0-0-0-0-0-0-0-0-|--0--0--0--0-0-0-0-0-|


 
|-----------------|----------------------|
|-----------------|----------------------|
|-9-9-9-9-9-9-9-9-|-11-11-11-11-8-8-8-8--|
|-----------------|----------------------|
|-7-7-7-7-7-7-7-7-|--9--9--9--9-6-6-6-6--|
|-----------------|----------------------|

|-----------------|----------------------|
|-----------------|----------------------|
|-2-2-2-2-2-2-2-2-|--2--2--2--2-2-4-4-4--|
|-2-2-2-2-2-2-2-2-|--2--2--2--2-2-4-4-4--|
|-0-0-0-0-0-0-0-0-|--0--0--0--0-0-2-2-2--|
|-----------------|----------------------|

|-----------------|-----------------|---------4-------|-5-------7--------|
|-----------------|-----------------|-0-2-2-0---5-4-0-|---5-4-0---5-5-4--|
|-6-6-6-6-6-6-6-6-|-8-8-8-8-8-8-8-8-|-----------------|------------------|
|-----------------|-----------------|-----------------|------------------|
|-4-4-4-4-4-4-4-4-|-6-6-6-6-6-6-6-6-|-----------------|------------------|
|-----------------|-----------------|-----------------|------------------|

|-----------------|-----------------|-----------------|------------------|
|-----------------|-----------------|-----------------|------------------|
|-6-6-6-6-6-6-6-6-|-4-4-4-4-4-4-4-4-|-2-----4-4---6---|-8---8---9---9----|
|-6-6-6-6-6-6-6-6-|-4-4-4-4-4-4-4-4-|-2-----4-4---6---|-9---9---9---9----|
|-4-4-4-4-4-4-4-4-|-2-2-2-2-2-2-2-2-|-0-----2-2---4---|-6---6---7---7----|
|-----------------|-----------------|-----------------|------------------|

|---------4-------|-5-------7-------|
|-0-2-2-0---5-4-0-|---5-4-0---0-7-9-|
|-----------------|-----------------|
|-----------------|-----------------|
|-----------------|-----------------|
|-----------------|-----------------|

|-----------------|-----------------|
|-----------------|-----------------|
|-2-----4-4---6---|-8---8---9---8---|
|-2-----4-4---6---|-9---9---9---9---|
|-0-----2-2---4---|-6---6---7---6---|
|-----------------|-----------------|

 Interlude:
|-----------------|-----------------|-----------------|------------------|
|-----------------|-----------------|-----------------|------------------|
|-8-8-8-8-8-8-8-8-|-8-8-8-8-8-8-8-8-|-4-4-4-4-4-4-4-4-|-4-4-4-4-4-4-4-4--|
|-----------------|-----------------|-----------------|------------------|
|-6-6-6-6-6-6-6-6-|-6-6-6-6-6-6-6-6-|-2-2-2-2-2-2-2-2-|-2-2-2-2-2-2-2-2--|
|-----------------|-----------------|-----------------|------------------|

|-----------------|-----------------|-----------------|------------------|
|-----------------|-----------------|-----------------|------------------|
|-4-4-4-4-4-4-4-4-|-4-4-4-4-4-4-4-4-|-2-2-2-2-2-2-2-2-|-2-2-2-2-2-2-2-2--|
|-4-4-4-4-4-4-4-4-|-4-4-4-4-4-4-4-4-|-2-2-2-2-2-2-2-2-|-2-2-2-2-2-2-2-2--|
|-2-2-2-2-2-2-2-2-|-2-2-2-2-2-2-2-2-|-0-0-0-0-0-0-0-0-|-0-0-0-0-0-0-0-0--|
|-----------------|-----------------|-----------------|------------------|

Guitar 1:
|-7-------7-------|-7-------7-------|-7-------7-------|-7-------7--------|
|---5-4-5---5-4-5-|---5-4-5---5-4-5-|---5-4-5---5-4-5-|---5-4-5---5-4-5--|
|-----------------|-----------------|-----------------|------------------|
|-----------------|-----------------|-----------------|------------------|
|-----------------|-----------------|-----------------|------------------|
|-----------------|-----------------|-----------------|------------------|

|-------------------------|-------------------------|
|-------------------------|-------------------------|
|-13-13-13-13-13-13-13-13-|-11-11-11-11-11-11-11-11-|
|-------------------------|-------------------------|
|-11-11-11-11-11-11-11-11-|--9--9--9--9--9--9--9--9-|
|-------------------------|-------------------------|

|-------------------------|-------------------------|
|-------------------------|-------------------------|
|--6--6--6--6--6--6--6--6-|--4--4--4--4--4--4--4--4-|
|--6--6--6--6--6--6--6--6-|--4--4--4--4--4--4--4--4-|
|--4--4--4--4--4--4--4--4-|--2--2--2--2--2--2--2--2-|
|-------------------------|-------------------------|

|--7-----------7----------|--7-----------7----------|
|-----5--4--5-----5--4--5-|-----5--4--5-----5--4--5-|
|-------------------------|-------------------------|
|-------------------------|-------------------------|
|-------------------------|-------------------------|
|-------------------------|-------------------------|

|-------------------------|--------------------------|
|-------------------------|--------------------------|
|-13-13-13-13-13-13-13-13-|-13-13-13-13-13-13-13-13--|
|-------------------------|--------------------------|
|-11-11-11-11-11-11-11-11-|-11-11-11-11-11-11-11-11--|
|-------------------------|--------------------------|

|-------------------------|--------------------------|
|-------------------------|--------------------------|
|--2--2--2--2--2--2--2--2-|--2--2--2--2--2--2--2--2--|
|--2--2--2--2--2--2--2--2-|--2--2--2--2--2--2--2--2--|
|--0--0--0--0--0--0--0--0-|--0--0--0--0--0--0--0--0--|
|-------------------------|--------------------------|

|--5--4--------5--4-------|--5--4--------5--4--------|
|--------2--0--------2--0-|--------2--0--------2--0--|
|-------------------------|--------------------------|
|-------------------------|--------------------------|
|-------------------------|--------------------------|
|-------------------------|--------------------------|

 Breakdown:
|--------------------|--------------------|
|--0-5--7-0-12-0-7-9-|--0--5-7-0-10-9-7-5-|
|--------------------|--------------------|
|--------------------|--------------------|
|--------------------|--------------------|
|--------------------|--------------------|

|--------------------|--------------------|
|--------------------|--------------------|
|-11---13----9---4---|-(4)----------------|
|--------------------|--------------------|
|--9---11----7---2---|-(2)----------------|
|--------------------|--------------------|

 Guitar 6:
|--------------------|--------------------|
|--------------------|--------------------|
|--9----9----9---9-9-|-(9)-9-9----9-9-9-9-|
|--9----9----9---9-9-|-(9)-9-9----9-9-9-9-|
|--7----7----7---7-7-|-(7)-7-7----7-7-7-7-|
|--0----0----0---0-0-|-(0)-0-0----0-0-0-0-|

|--------------------|------------12-12-------|
|--0-5--7-0-12-0-7-9-|---0--5-7-0-------12-0--|
|--------------------|------------------------|
|--------------------|------------------------|
|--------------------|------------------------|
|--------------------|------------------------|

|--------------------|------------------------|
|--------------------|------------------------|
|-11---13---16-------|-(16)-------------------|
|--------------------|------------------------|
|--9---11---14-------|-(14)-------------------|
|--------------------|------------------------|

|--------------------|------------------------|
|--------------------|------------------------|
|--9----9----9---9-9-|--(9)-9-9----9--9--9-9--|
|--9----9----9---9-9-|--(9)-9-9----9--9--9-9--|
|--7----7----7---7-7-|--(7)-7-7----7--7--7-7--|
|--0----0----0---0-0-|--(0)-0-0----0--0--0-0--|

|--------------------|--------------------|
|--0-5--7-0-12-0-7-9-|--0--5-7-0-10-9-7-5-|
|--------------------|--------------------|
|--------------------|--------------------|
|--------------------|--------------------|
|--------------------|--------------------|

|--------------------|--------------------|
|--------------------|--------------------|
|-11---13----9---4---|-(4)----------------|
|--------------------|--------------------|
|--9---11----7---2---|-(2)----------------|
|--------------------|--------------------|

|--------------------|--------------------|
|--------------------|--------------------|
|--6----6----6---6-6-|-(6)-6-6----6-6-6-6-|
|--6----6----6---6-6-|-(6)-6-6----6-6-6-6-|
|--4----4----4---4-4-|-(4)-4-4----4-4-4-4-|
|--------------------|--------------------|

|--------------------|---------------------|
|--0-5--7-0-12-0-7-9-|--0--5-7-0-10-9-7-5--|
|--------------------|---------------------|
|--------------------|---------------------|
|--------------------|---------------------|
|--------------------|---------------------|

|--------------------|---------------------|
|--------------------|---------------------|
|-11---13----8-------|-(8)-----------------|
|--------------------|---------------------|
|--9---11----6-------|-(6)-----------------|
|--------------------|---------------------|

|--------------------|---------------------|
|--------------------|---------------------|
|--4----4----4---4-4-|-(4)-4-4----4-4-4-4--|
|--4----4----4---4-4-|-(4)-4-4----4-4-4-4--|
|--2----2----2---2-2-|-(2)-2-2----2-2-2-2--|
|--------------------|---------------------|

|----------------------|--------------------------|
|--0-5--7-0-12-0--7--9-|---0---5--7-0-10--9--7--5-|
|----------------------|--------------------------|
|----------------------|--------------------------|
|----------------------|--------------------------|
|----------------------|--------------------------|

|----------------------|--------------------------|
|----------------------|--------------------------|
|-14---14---14---14-14-|-(14)-14-14---14-14-14-14-|
|----------------------|--------------------------|
|-12---12---12---12-12-|-(12)-12-12---12-12-12-12-|
|----------------------|--------------------------|

|----------------------|--------------------------|
|----------------------|--------------------------|
|--2----2----2----2--2-|--(2)--2--2----2--2--2--2-|
|--2----2----2----2--2-|--(2)--2--2----2--2--2--2-|
|--0----0----0----0--0-|--(0)--0--0----0--0--0--0-|
|----------------------|--------------------------|

|----------------------|------------------------|
|--0-5--7-0-12--0-7--9-|---0---5-7--0-10-9-7-5--|
|----------------------|------------------------|
|----------------------|------------------------|
|----------------------|------------------------|
|----------------------|------------------------|

|----------------------|------------------------|
|----------------------|------------------------|
|-14---14---14-14---14-|-(14)-14---14-14-9-9-9--|
|----------------------|------------------------|
|-12---12---12-12---12-|-(12)-12---12-12-7-7-7--|
|----------------------|------------------------|

|----------------------|------------------------|
|----------------------|------------------------|
|--2----2----2--2----2-|--(2)--2----2--2-4-4-4--|
|--2----2----2--2----2-|--(2)--2----2--2-4-4-4--|
|--0----0----0--0----0-|--(0)--0----0--0-2-2-2--|
|----------------------|------------------------|

|----------------------|-------------------------|
|--0-5--7-0-12-0--7--9-|---0---5--7-0-10--9--7-5-|
|----------------------|-------------------------|
|----------------------|-------------------------|
|----------------------|-------------------------|
|----------------------|-------------------------|

|----------------------|-------------------------|
|----------------------|-------------------------|
|-13---13---13---13-13-|-(13)-13-13---13-14------|
|----------------------|-------------------------|
|-11---11---11---11-11-|-(11)-11-11---11-12------|
|----------------------|-------------------------|

|----------------------|-------------------------|
|----------------------|-------------------------|
|--6----6----6----6--6-|--(6)--6--6----6--6--6-6-|
|--6----6----6----6--6-|--(6)--6--6----6--6--6-6-|
|--4----4----4----4--4-|--(4)--4--4----4--4--4-4-|
|----------------------|-------------------------|

|----------------------|----0--0----0--0----0--|
|--0-5--7-0-12-0--7--9-|----4--4----4--4----4--|
|----------------------|-----------------------|
|----------------------|-----------------------|
|----------------------|-----------------------|
|----------------------|-----------------------|

|----------------------|-----------------------|
|----------------------|-----------------------|
|-11---11---11---11-11-|---11-11---11-11---11--|
|----------------------|-----------------------|
|--9----9----9----9--9-|----9--9----9--9----9--|
|----------------------|-----------------------|

|----------------------|-----------------------|
|----------------------|-----------------------|
|--4----4----4----4--4-|----4--4----4--4----4--|
|--4----4----4----4--4-|----4--4----4--4----4--|
|--2----2----2----2--2-|----2--2----2--2----2--|
|----------------------|-----------------------|


   Out-Chorus:
    Guitar 1:
|--------------7---|-------------7---|-------------7---|-------------7----|
|o-5-7-5---5-7---7-|-5-7-5---5-7---7-|-5-7-5---5-7---7-|-5-7-5---5-7---7-o|
|--------4---------|-------4---------|-------4---------|-------4----------|
|------------------|-----------------|-----------------|------------------|
|o-----------------|-----------------|-----------------|-----------------o|
|------------------|-----------------|-----------------|------------------|

   Guitar 4:
|----2-----0---0---|---2-----0---0---|---2-----0---0---|---2-----0---0----|
|o-5---5-4---0---0-|-5---5-4---0---0-|-5---5-4---0---0-|-5---5-4---0---0-o|
|------------------|-----------------|-----------------|------------------|
|------------------|-----------------|-----------------|------------------|
|o-----------------|-----------------|-----------------|-----------------o|
|------------------|-----------------|-----------------|------------------|


  
    Guitar 2:
|------------------|---------------------|
|o-----------------|---------------------|
|--9-9-9-9-9-9-9-9-|-11-11-11-11-8-8-8-8-|
|------------------|---------------------|
|o-7-7-7-7-7-7-7-7-|--9--9--9--9-6-6-6-6-|
|------------------|---------------------|

 Guitar 3:
|------------------|---------------------|
|o-----------------|---------------------|
|--9-9-9-9-9-9-9-9-|--9--9--9--9-9-9-9-9-|
|--9-9-9-9-9-9-9-9-|--9--9--9--9-9-9-9-9-|
|o-7-7-7-7-7-7-7-7-|--7--7--7--7-7-7-7-7-|
|--0-0-0-0-0-0-0-0-|--0--0--0--0-0-0-0-0-|

|-----------------|---------------------|
|-----------------|---------------------|
|-9-9-9-9-9-9-9-9-|-11-11-11-11-x-8-x-8-|
|-----------------|---------------------|
|-7-7-7-7-7-7-7-7-|--9--9--9--9-x-6-x-6-|
|-----------------|---------------------|

|-----------------|---------------------|
|-----------------|---------------------|
|-2-2-2-2-2-2-2-2-|--2--2--2--2-x-4-x-4-|
|-2-2-2-2-2-2-2-2-|--2--2--2--2-x-4-x-4-|
|-0-0-0-0-0-0-0-0-|--0--0--0--0-x-2-x-2-|
|-----------------|---------------------|

|-----------------|-----------------|
|-----------------|-----------------|
|-6-6-6-6-6-6-6-6-|-8-8-8-8-8-8-8-8-|
|-----------------|-----------------|
|-4-4-4-4-4-4-4-4-|-6-6-6-6-6-6-6-6-|
|-----------------|-----------------|

|-----------------|-----------------|
|-----------------|-----------------|
|-6-6-6-6-6-6-6-6-|-4-4-4-4-4-4-4-4-|
|-6-6-6-6-6-6-6-6-|-4-4-4-4-4-4-4-4-|
|-4-4-4-4-4-4-4-4-|-2-2-2-2-2-2-2-2-|
|-----------------|-----------------|

|-------------------------|-------------------|
|-------------------------|------------------o|
|-16-16-16-16-16-16-16-16-|---4-4-4-------4---|
|-------------------------|---4-4-4---4-4-4---|
|-14-14-14-14-14-14-14-14-|---2-2-2---4-4-2--o|
|-------------------------|-----------2-2-----|

|-------------------------|-------------------|
|-------------------------|------------------o|
|--2--2--2--2--2--2--2--2-|---4-4-4-------4---|
|--2--2--2--2--2--2--2--2-|---4-4-4---4-4-4---|
|--0--0--0--0--0--0--0--0-|---2-2-2---4-4-2--o|
|-------------------------|-----------2-2-----|

|--12---11-------------|-------------------------|
|o-----------12---9-12-|-(12)--9-12--9-10-9------|
|----------------------|--------------------11-9-|
|----------------------|-------------------------|
|o---------------------|-------------------------|
|----------------------|-------------------------|

|----------------------|-------------------------|
|o---------------------|-------------------------|
|---9-9--9-9--9-9-9--9-|--11--11-11-11--8-8--8-8-|
|----------------------|-------------------------|
|o--7-7--7-7--7-7-7--7-|---9---9--9--9--6-6--6-6-|
|----------------------|-------------------------|

   Guitar 6:
|----------------------|-------------------------|
|o---------------------|-------------------------|
|---9-9--9-9--9-9-9--9-|---9---9--9--9--9-9--9-9-|
|---9-9--9-9--9-9-9--9-|---9---9--9--9--9-9--9-9-|
|o--7-7--7-7--7-7-7--7-|---7---7--7--7--7-7--7-7-|
|---0-0--0-0--0-0-0--0-|---0---0--0--0--0-0--0-0-|

|-12---11-------------|-------------------------|
|-----------12---9-12-|-(12)--9-12--9-10-9------|
|---------------------|--------------------11-9-|
|---------------------|-------------------------|
|---------------------|-------------------------|
|---------------------|-------------------------|

|---------------------|-------------------------|
|---------------------|-------------------------|
|--9-9--9-9--9-9-9--9-|--11--11-11-11--x-8--x-8-|
|---------------------|-------------------------|
|--7-7--7-7--7-7-7--7-|---9---9--9--9--x-6--x-6-|
|---------------------|-------------------------|

|---------------------|-------------------------|
|---------------------|-------------------------|
|--2-2--2-2--2-2-2--2-|---2---2--2--2--x-4--x-4-|
|--2-2--2-2--2-2-2--2-|---2---2--2--2--x-4--x-4-|
|--0-0--0-0--0-0-0--0-|---0---0--0--0--x-2--x-2-|
|---------------------|-------------------------|

|-12---11-------------|-----------------------|
|-----------12---9-12-|-(12)-9-12-9-10-9------|
|---------------------|------------------11-9-|
|---------------------|-----------------------|
|---------------------|-----------------------|
|---------------------|-----------------------|

|---------------------|-----------------------|
|---------------------|-----------------------|
|--6-6--6-6--6-6-6--6-|---8--8--8-8--8-8--8-8-|
|---------------------|-----------------------|
|--4-4--4-4--4-4-4--4-|---6--6--6-6--6-6--6-6-|
|---------------------|-----------------------|

|---------------------|-----------------------|
|---------------------|-----------------------|
|--6-6--6-6--6-6-6--6-|---4--4--4-4--4-4--4-4-|
|--6-6--6-6--6-6-6--6-|---4--4--4-4--4-4--4-4-|
|--4-4--4-4--4-4-4--4-|---2--2--2-2--2-2--2-2-|
|---------------------|-----------------------|

|--------------4----------|-5-------7---------|
|--0--2--2--0-----5--4--0-|---5-4-0---0-7-9--o|
|-------------------------|-------------------|
|-------------------------|-------------------|
|-------------------------|------------------o|
|-------------------------|-------------------|

|-------------------------|-------------------|
|-------------------------|------------------o|
|-16-16-16-16-16-16-16-16-|---4-4-4-------4---|
|-------------------------|---4-4-4---4-4-4---|
|-14-14-14-14-14-14-14-14-|---2-2-2---4-4-2--o|
|-------------------------|-----------2-2-----|

|-------------------------|-------------------|
|-------------------------|------------------o|
|--2--2--2--2--2--2--2--2-|---4-4-4-------4---|
|--2--2--2--2--2--2--2--2-|---4-4-4---4-4-4---|
|--0--0--0--0--0--0--0--0-|---2-2-2---4-4-2--o|
|-------------------------|-----------2-2-----|

|---------4-------|-5-------7-------|---------4-------|-5-------7--------|
|-0-2-2-0---5-4-0-|---5-4-0---5-5-4-|-0-2-2-0---5-4-0-|---5-4-0---5-5-4--|
|-----------------|-----------------|-----------------|------------------|
|-----------------|-----------------|-----------------|------------------|
|-----------------|-----------------|-----------------|------------------|
|-----------------|-----------------|-----------------|------------------|

|-----------------|-----------------|-----------------|------------------|
|-----------------|-----------------|-----------------|------------------|
|-2-----4-4---6---|-8---8---9---9---|-2-----4-4---6---|-8---8---9---8----|
|-2-----4-4---6---|-9---9---9---9---|-2-----4-4---6---|-9---9---9---9----|
|-0-----2-2---4---|-6---6---7---7---|-0-----2-2---4---|-6---6---7---6----|
|-----------------|-----------------|-----------------|------------------|

|----------|------------|------------|--------|
|-2--------|-(2)--------|-(2)--------|-(2)----|
|----------|------------|------------|--------|
|----------|------------|------------|--------|
|----------|------------|------------|--------|
|----------|------------|------------|--------|

|----------|------------|------------|--------|
|----------|------------|------------|--------|
|-2--------|-(2)--------|-(2)--------|-(2)----|
|-2--------|-(2)--------|-(2)--------|-(2)----|
|-0--------|-(0)--------|-(0)--------|-(0)----|
|----------|------------|------------|--------|
00:00 / 00:00
Otros videos de esta canción
Repetir
Otros videos de esta canción
Composición de Mae
    • ½ Tono
    • A
    • Bb
    • B
    • C
    • Db
    • D
    • Eb
    • E
    • F
    • F#
    • G
    • Ab
  • Agregar a la lista

    0 comentarios

    Ver todos los comentarios

    ¿Lograste tocar?

    0 Tocaron 0 Aún no

    ¡Graba un video tocando Suspension y envíanoslo!

    00:00 / 00:00
    OK