Cifra Club

How Far Jerusalem

Magnum

Cifrado: Principal (guitarra y guitarra eléctrica)
tono: G

                 (transcribed in a very hurry by mEeK)



                                                 
                                                         
E||----------------------|-----------------|----------------------|
B||----------------------|-----------------|----------------------|
G||--4----4----4----4----|------------7~---|--4----4----4----4----|
D||--4----4----4----4----|--7h---9----7~---|--4----4----4----4----|
A||--2----2----2----2----|--7h---9----0----|--2----2----2----2----|
E||--0----0----0----0----|--0--------------|--0----0----0----0----|


                                                                                
----------------------|-------|--3----0----|-----------------|-----------------|
----------------------|-------|--3----0----|-----------------|-----------------|
------------7----7----|--4~---|--0----2----|-----------------|-----------------|
--7h---9----7----7----|--4~---|--0----2----|--2--------------|--2----4----5----|
--7h---9----0----0----|-------|--x----0----|--2----7~---3~---|--2----4----5----|
--0-------------------|-------|--3---------|--0--------------|--0----2----3----|

                                 
Compositor não encontrado.
18 vistas
    • ½ Tono
    • A
    • Bb
    • B
    • C
    • Db
    • D
    • Eb
    • E
    • F
    • F#
    • G
    • Ab
  • Agregar a la lista

    0 comentarios

    Ver todos los comentarios

    ¿Lograste tocar?

    0 Tocaron 0 Aún no

    ¡Graba un video tocando How Far Jerusalem y envíanoslo!

    00:00 / 00:00
    Outros vídeos desta música
    Repetir Calidad Automático
    Outros vídeos desta música
    00:00 / 00:00
    Automático
    OK