Cifra Club

Just Like An Arrow

Magnum

Cifrado: Principal (guitarra y guitarra eléctrica)
tono: A
                    (transcribed in a hurry by mEeK)
   

                                                                     
E||----------------------|----------------------|----------------------|
B||----------------------|----------------------|----------------------|
G||----------------------|-------2--------------|------------1----2----|
D||----------------------|-------2----1h---2----|--2----4--------------|
A||--x----2~---4~--------|-------0--------------|----------------------|
E||--4--------------0----|--3-------------------|----------------------|


                                                                     
----------------------|----------------------|----------------------|
----------------------|----------------------|----------------------|
--2----4--------------|----------------------|----------------------|
------------2~--------|----------------------|-------7----7----7----|
----------------------|--2----4----4/---6----|-------7----7----7----|
-----------------4----|----------------------|--4----5----5----5----|


                                                                     
----------------------|----------------------|----------------------|
----------------------|----------------------|----------------------|
----------------------|-------4----4----4----|--4----4----4----4----|
--7----7----7----7----|--7----4----4----4----|--4----4----4----4----|
--7----7----7----7----|--7----2----2----2----|--2----2----2----2----|
--5----5----5----5----|--5-------------------|----------------------|


                                   
------------|------------|-------||
------------|------------|-------||
--4---------|------------|--9----||
--4----2----|--2----2----|--9----||
--2----2----|--2----2----|--7----||
-------0----|--0----0----|-------||

                            
Compositor não encontrado.
21 vistas
    • ½ Tono
    • A
    • Bb
    • B
    • C
    • Db
    • D
    • Eb
    • E
    • F
    • F#
    • G
    • Ab
  • Agregar a la lista

    0 comentarios

    Ver todos los comentarios

    ¿Lograste tocar?

    0 Tocaron 0 Aún no

    ¡Graba un video tocando Just Like An Arrow y envíanoslo!

    00:00 / 00:00
    Outros vídeos desta música
    Repetir Calidad Automático
    Outros vídeos desta música
    00:00 / 00:00
    Automático
    OK