Cifra Club

El templo del Adios

Mago de Oz

Tablatura: Principal (guitarra)
reproducciones 933
Tono: Am
[Intro]  Am  F  G  Am  Am
 G  Dm  Am

[Solo]

      Am            F    G                Am
E|--------------------------------------------------------|
B|-5--5--3-5-3---3-------3--3--3-5-3---3------------------|
G|-------------5---5-2---------------5---5-2--------------|
D|--------------------------------------------------------|
A|--------------------------------------------------------|
E|--------------------------------------------------------|

      Am             F   Dm               Am   [Riff]
E|-----------------------------------------------------0-------|
B|-5--5--3-5-3---3-------3--3--3-5-3---3-----------0-1---3-0-1-|
G|-------------5---5-4---------------5---5-2---0-2-------------|
D|-------------------------------------------------------------|
A|-------------------------------------------------------------|
E|-------------------------------------------------------------|

C          G
Cuentan que estando cerca el final
Dm               Am
De su viaje vio llegar
F             G
Una silueta, que con el sol
Am
Su armadura hacia brillar

[Riff]

C          G
Cuentan que su rostro nunca vio
Dm            Am
pero su voz anuncio:
F                 G
"Soy el caballero de la Blanca Luna
Am
y a vos he venido a buscar"

Dm
Todo lo que empieza tiene un fin
           Am
Y es la razon de la vida,
Dm
Todo lo que has aprendido
De amistad y amor
Am
En tu alma quedará

Dm
Ya todo está hecho y ahora te aguarda mi reino:
Am
Duerme, duerme

Dm                                             Em
Monta a Rocinante y emprende el camino hacia la luz
F     G     Am
Es tiempo de regresar

[Solo]

      Am            F    G                Am
E|--------------------------------------------------------|
B|-5--5--3-5-3---3-------3--3--3-5-3---3------------------|
G|-------------5---5-2---------------5---5-2--------------|
D|--------------------------------------------------------|
A|--------------------------------------------------------|
E|--------------------------------------------------------|

      Am             F   Dm               Am   [Riff]
E|-----------------------------------------------------0-------|
B|-5--5--3-5-3---3-------3--3--3-5-3---3-----------0-1---3-0-1-|
G|-------------5---5-4---------------5---5-2---0-2-------------|
D|-------------------------------------------------------------|
A|-------------------------------------------------------------|
E|-------------------------------------------------------------|

C            G
Cuentan que cuando no puedes mas
    Dm             Am
Y tus fuerzas ves marchar
F                   G
Hay algo magico en tu interior
Am
Que te da alas para luchar.

[Riff]

C            G
Cuentan que su rostro nunca vio
  Dm         Am
Pero su voz anuncio:
F                  G
"Soy el caballero de la Blanca Luna
Am
Y es tiempo de descansar"

Dm
Ya todo está hecho y ahora te aguarda mi reino:
Am
Duerme, duerme

Dm                                             E
Monta a Rocinante y emprende el camino hacia la luz
F       G        Am
Hacia el templo del adios

[Solo]

      Am            F    G                Am
E|--------------------------------------------------------|
B|-5--5--3-5-3---3-------3--3--3-5-3---3------------------|
G|-------------5---5-2---------------5---5-2--------------|
D|--------------------------------------------------------|
A|--------------------------------------------------------|
E|--------------------------------------------------------|

      Am             F   Dm               Am   [Riff]
E|-----------------------------------------------------0-------|
B|-5--5--3-5-3---3-------3--3--3-5-3---3-----------0-1---3-0-1-|
G|-------------5---5-4---------------5---5-2---0-2-------------|
D|-------------------------------------------------------------|
A|-------------------------------------------------------------|
E|-------------------------------------------------------------|

( Am  F  Am  F  Am  G  Dm  E )

Dm
Ya todo está hecho y ahora te aguarda mi reino:
Am
Duerme, duerme

Dm
Todo lo que has aprendido

De amistad y amor
Am
En tu alma quedará

Dm
Ya todo está hecho y ahora te aguarda mi reino:
Am
Duerme, duerme

Dm                                             E
Monta a Rocinante y emprende el camino hacia la luz

Dm
Todo lo que empieza tiene un fin,
                Am
Y es la razon de la vida.

Dm                                          E
Monta a Rocinante y emprende el camino hacia la luz
F     G       Am
Hacia el templo del adios

      Am            F    G                Am
E|--------------------------------------------------------|
B|-5--5--3-5-3---3-------3--3--3-5-3---3------------------|
G|-------------5---5-2---------------5---5-2--------------|
D|--------------------------------------------------------|
A|--------------------------------------------------------|
E|--------------------------------------------------------|

      Am             F   Dm               Am   (Riff)
E|-----------------------------------------------------0-------|
B|-5--5--3-5-3---3-------3--3--3-5-3---3-----------0-1---3-0-1-|
G|-------------5---5-4---------------5---5-2---0-2-------------|
D|-------------------------------------------------------------|
A|-------------------------------------------------------------|
E|-------------------------------------------------------------|

[Final] F  E  Am
Acordes para:
    Compositor: Ritchie Blackmore / TxusColaboración y revision:
    • Samuel Carvalho
    • Arthur Borges

    0 comentarios

      mostrar más comentarios

      ¿Conseguiste tocar?

      0tocaron0aún no

      ¡Graba un vídeo tocando El templo del Adios y envianoslo!

      00:00 / 00:00
      outros vídeos desta música
      repetirqualidadeAutomático
      Outro vídeos desta música
        00:00 / 00:00
        OK