Cifra Club

Tasogare

Mai Yamane

Cifrado: Principal (guitarra y guitarra eléctrica)
Selo Cifra Club: esta cifra foi revisada para atender aos critérios oficiais da nossa Equipe de Qualidade.
tono: G#m
E|---------------------------------------------------------------------------|
B|--7~--7b8---7--/0--7h8h10----10b11---8----/0----------------10---8/5-------|
G|---------------------------------------9------------------8----------------|
D|-------------------------------------------------------9-------------------|
A|------------------------------------------------9--10----------------------|
E|---------------------------------------------------------------------------|

E|-----------------------------14----14/15-----------------------------------|
B|--7-8-10b11--8-h10p8-/5---12----12-----------------------------------------|
G|-------------------------------------------12b13---------------------------|
D|---------------------------------------------------------------------------|
A|---------------------------------------------------------------------------|
E|---------------------------------------------------------------------------|
                             this part here might be wrong



************************************

| h  Hammer-on
| b  Bend
| /  Slide up
| ~  Vibrato
| p  Pull-off
Otros videos de esta canción
    68 exhibiciones
      • ½ Tono
      • Am
      • Bbm
      • Bm
      • Cm
      • C#m
      • Dm
      • Ebm
      • Em
      • Fm
      • F#m
      • Gm
      • G#m
    • Agregar a la lista

    Afinação da cifra

    Afinador online

      Ops (: Contenido disponible solo en portugués.
      OK