Cifra Club

Lay Your Head On Me

Major Lazer

Cifrado: Principal (guitarra y guitarra eléctrica)
Selo Cifra Club: esta cifra foi revisada para atender aos critérios oficiais da nossa Equipe de Qualidade.
tono: D
[Intro]
   G   D/F# A   Bm  A
E|--------------------|
B|--0-------2----3--2-|
G|--0---2---2----4--2-| X2
D|------4-----------2-|
A|-----0---0----2-----|
E|-3------------------|

[Verse 1]
G                           D
   When you’re numb to the touch
A                        Bm         A
   You cannot chase this ghost away
G                     D
   And this too shall pass, this too shall pass
A                  Bm          A
   It won’t always be the same


[Pre-Chorus]
G                  Bm
  And every single scar that you claim
D                   D/F#
  Is a stone in the path to this place
G                  A
  And every single choice that you make
Bm                  D                       G
   Has led you this way so lay your head on me


[Chorus]
D                  A   Bm
  Lay your head on me
                 G  D
Lay your head on me
                 A  Bm
Lay your head on me

Don’t be afraid love

[Instrumental]
  G                      D                     A                    Bm                A
E|-0h2--2h3p2-2-2-2-------0h2--2h3p2-2-2-2------0h2--2h3p2-2-2-2------5--5h7------------|
B|-------------------5/3-------------------5---------------------5/3-----------7-7---5--|
G|--------------------------------------------------------------------------------------| X2
D|--------------------------------------------------------------------------------------|
A|--------------------------------------------------------------------------------------|
E|--------------------------------------------------------------------------------------|

[Verse 2]
G                            D
   And I can see it in your eyes, love
A                  Bm               A
   And your secret is not safe with me
G                            D
   You can spin through the night with your powdered mind
A                  Bm            A
   But don’t cover up your scars for me


[Pre-Chorus]
G                  Bm
  And every single choice that you made
D                    D/F#
  Was a stone in the path to this place
G                  A
  And every single cut that you claim
Bm                  D                     G
   Has led you this way, lay your head on me

[Chorus]
D                  A   Bm
  Lay your head on me
                 G  D
Lay your head on me
                 A  Bm*
Lay your head on me
N.C.
Don’t be afraid love

[Instrumental]
  G                      D                     A                    Bm                A
E|-0h2--2h3p2-2-2-2-------0h2--2h3p2-2-2-2------0h2--2h3p2-2-2-2------5--5h7------------|
B|-------------------5/3-------------------5---------------------5/3-----------7-7---5--|
G|--------------------------------------------------------------------------------------| X2
D|--------------------------------------------------------------------------------------|
A|--------------------------------------------------------------------------------------|
E|--------------------------------------------------------------------------------------|


[Bridge]
        G
I said it’s okay, it’s alright
Bm
  Someday we will be fine
D
Staring down the long night
A
Waiting for the sunrise
     G
It’s alright it’s okay
Bm
I’ve been there in your place
D
It’s okay it’s alright


[Chorus]
G                       A   Bm
  Just lay your head on me (It’s okay it’s alright)
                 G  D
Lay your head on me (It’s okay it’s alright)
                 A  Bm
Lay your head on me (It’s okay it’s alright)
                 A  Bm
Lay your head on me (It’s okay it’s alright)

Don’t be afraid love

[Instrumental]
  G                      D                     A                    Bm                A
E|-0h2--2h3p2-2-2-2-------0h2--2h3p2-2-2-2------0h2--2h3p2-2-2-2------5--5h7------------|
B|-------------------5/3-------------------5---------------------5/3-----------7-7---5--|
G|--------------------------------------------------------------------------------------| X2
D|--------------------------------------------------------------------------------------|
A|--------------------------------------------------------------------------------------|
E|--------------------------------------------------------------------------------------|

   G   D    A    Bm  A
E|--------------------|
B|--0-------2----3--2-|
G|--0---2---2----4--2-|
D|------4-----------2-|
A|-----0---0----2-----|
E|-3------------------|



=================
/ slide
h hammer on
p pull-off
=================
Otros videos de esta canción
    27 exhibiciones
      • ½ Tono
      • A
      • Bb
      • B
      • C
      • Db
      • D
      • Eb
      • E
      • F
      • F#
      • G
      • Ab
    • Agregar a la lista

    Afinación de cifrado

    Afinador online

      OK