Cifra Club

Kumbala

Maldita Vecindad y los Hijos del 5to. Patio

Chords: Principal (acoustic and electric guitars)
tone: Em
INTRO

E|---0-0-0---0--|
B|---0-0-0------|
G|---0-0-0------|
D|---2-X-X------|
A|---2-X-X-3----|
E|-0-X-X-X-----0|

E|-12-14-15-14-12-----------12|
B|-12------------15-12------12|
G|-12-----------------14-12-12|
D|----------------------------|
A|----------------------------|
E|----------------------------|

 Em
Luz,
 B7
roja es la luz
         Am
luz de neon
            G
que anuncia el lugar:

'Baile kumbala bar'
    B7
y adentro

A  noche es
       Em
musica y pasion.
Em
G  ,

no entiendes
B7
lo que pasa aqui
            Am
esto es la noche
     G
y de la noche son

las cosa del amor
    B7
el corazon

a media luz
               Em
siempre se entregara.
Em
Mar,
           B7
todo el ambiente

huele a mar
         Am
mucho calor
         G
sudores en la piel

sudor sabor a sal
B7
y en la pista

una pareja
             Em
se vuelve a enamorar.
Em
'Sol,

no entiendes
       B7
lo que pasa aqui
            Am
esto es la noche
               B7
y de la noche son
                Em
las cosas del amor.'
Em
Una risa
 B7
una caricia
Am
y en la pista
       B7
una pareja
             Em   B7
se vuelve a enamorar.
Em
Un sabroso

y buen danzon
   B7
a media luz

el corazon
     Am
y en el kumbala
      B7
todo es
       Em    B7
musica y pasion.

E|-12-14-15-14-12-----------12--12------------------------------|
B|-12------------15-12------12--12------12-15-12----------------|
G|-12-----------------14-12-12--12-12-14--------14-12-14-12-12/7|
D|--------------------------------------------------------------|
A|--------------------------------------------------------------|
E|--------------------------------------------------------------|
00:00 / 00:00
Other videos of this song
Repeat
Other videos of this song
Composer not found.
614 views
    • ½ Tone
    • Am
    • Bbm
    • Bm
    • Cm
    • C#m
    • Dm
    • Ebm
    • Em
    • Fm
    • F#m
    • Gm
    • G#m
  • Add to list
    00:00 / 00:00
    OK