Cifra Club

Au Revoir

Malice Mizer

Cifrado: Principal (guitarra y guitarra eléctrica)
tono: E
Merveilles
Guitarist - Mana
Tabbed by: *

awesome

E|------|------|------|------|------|------|------|---2--|
B|--3---|--2---|--2---|--3---|--3---|--2---|--3---|--4---|
G|-0----|-2----|-2----|-2----|-0----|-3----|-4----|-4----|
D|2-----|2-----|4-----|4-----|2-----|4-----|4-----|4-----| x2
A|------|------|------|------|------|------|------|------|
E|------|------|------|------|------|------|------|------|

E|------|------|------|------|------|------|------|---2--|
B|--3---|--2---|--2---|--3---|--3---|--2---|--3---|--4---|
G|-0----|-2----|-2----|-2----|-0----|-3----|-4----|-4----|
D|2-----|2-----|4-----|4-----|2-----|4-----|4-----|4-----|
A|------|------|------|------|------|------|------|------|
E|------|------|------|------|------|------|------|------|

E|---2----|-----0--|---0----|-----2--|
B|---3----|-----0--|---2----|-----2--|
G|---2----|-----1--|---1----|-----2--|
D|--------|--------|--------|--------|
A|--------|--------|--------|--------|
E|--------|--------|--------|--------|

E|--------|-----1--|--------|-----3--|
B|---3----|-----2--|---2----|-----2--|
G|---4----|-----1--|---2----|-----3--|
D|---4----|--------|---4----|--------|
A|--------|--------|--------|--------|
E|--------|--------|--------|--------|

E|---2----|-----0--|---0----|-----2--|
B|---3----|-----0--|---2----|-----2--|
G|---2----|-----1--|---1----|-----2--|
D|--------|--------|--------|--------|
A|--------|--------|--------|--------|
E|--------|--------|--------|--------|

E|--------|-----1--|--------|-----3--|
B|---3----|-----2--|---2----|-----2--|
G|---4----|-----1--|---2----|-----3--|
D|---4----|--------|---4----|--------|
A|--------|--------|--------|--------|
E|--------|--------|--------|--------|

E|------|------|------|------|------|0-0---|------|0-0---|
B|3-3---|2-2---|2-2---|3-3---|3-3---|2-2---|6-6---|2-2---|
G|4-4---|2-2---|2-2---|2-2---|4-4---|3-3---|4-4---|3-3---|
D|5-5---|2-2---|0-0---|4-4---|5-5---|4-4---|6-6---|4-4---|
A|------|0-0---|------|2-2---|------|------|4-4---|------|
E|------|------|------|------|------|------|------|------|

E|------|------|------|------|------|0-0---|------|0-----|
B|3-3---|2-2---|2-2---|3-3---|3-3---|2-2---|3-3---|2-----|
G|4-4---|2-2---|2-2---|2-2---|4-4---|2-2---|4-4---|3-----|
D|5-5---|2-2---|0-0---|4-4---|5-5---|------|5-5---|4-----|
A|------|0-0---|------|2-2---|------|------|------|------|
E|------|------|------|------|------|------|------|------|

E|------|------|------|------|------|------|------|------|
B|--3---|--2---|--2---|--3---|--3---|--2---|--3---|--4---|
G|-0----|-2----|-2----|-2----|-0----|-3----|-4----|-2----|
D|2-----|2-----|4-----|4-----|2-----|4-----|4-----|1-----|
A|------|------|------|------|------|------|------|------|
E|------|------|------|------|------|------|------|------|

E|------|------|------|------|------|------|
B|--3---|--2---|--2---|--3---|--3---|--2---|
G|-0----|-2----|-2----|-2----|-0----|-3----|
D|2-----|2-----|4-----|4-----|2-----|4-----|
A|------|------|------|------|------|------|
E|------|------|------|------|------|------|

E|---2----|-----0--|---0----|-----2--|
B|---3----|-----0--|---2----|-----2--|
G|---2----|-----1--|---1----|-----2--|
D|--------|--------|--------|--------|
A|--------|--------|--------|--------|
E|--------|--------|--------|--------|

E|--------|-----1--|--------|-----3--|
B|---3----|-----2--|---2----|-----2--|
G|---4----|-----1--|---2----|-----3--|
D|---4----|--------|---4----|--------|
A|--------|--------|--------|--------|
E|--------|--------|--------|--------|

E|---2----|-----0--|---0----|-----2--|
B|---3----|-----0--|---2----|-----2--|
G|---2----|-----1--|---1----|-----2--|
D|--------|--------|--------|--------|
A|--------|--------|--------|--------|
E|--------|--------|--------|--------|

E|--------|-----1--|--------|-----3--|
B|---3----|-----2--|---2----|-----2--|
G|---4----|-----1--|---2----|-----3--|
D|---4----|--------|---4----|--------|
A|--------|--------|--------|--------|
E|--------|--------|--------|--------|

E|------|------|------|------|------|0-0---|------|0-0---|
B|3-3---|2-2---|2-2---|3-3---|3-3---|2-2---|6-6---|2-2---|
G|4-4---|2-2---|2-2---|2-2---|4-4---|3-3---|4-4---|3-3---|
D|5-5---|2-2---|0-0---|4-4---|5-5---|4-4---|6-6---|4-4---|
A|------|0-0---|------|2-2---|------|------|4-4---|------|
E|------|------|------|------|------|------|------|------|

E|------|------|------|------|------|0-0---|------|0-0---|------|0-0---|
B|3-3---|2-2---|2-2---|3-3---|3-3---|2-2---|3-3---|2-2---|3-3---|2-2---|
G|4-4---|2-2---|2-2---|2-2---|4-4---|2-2---|4-4---|2-2---|4-4---|3-3---|
D|5-5---|2-2---|0-0---|4-4---|5-5---|------|5-5---|------|5-5---|4-4---|
A|------|0-0---|------|2-2---|------|------|------|------|------|------|
E|------|------|------|------|------|------|------|------|------|------|

E|------|---3--|------|---2--|------|---2--|------|---2--|
B|--3---|--2---|--2---|--3---|--3---|--2---|--3---|--0---|
G|-0----|-0----|-2----|-2----|-0----|-3----|-4----|-2----|
D|2-----|2-----|4-----|4-----|2-----|4-----|4-----|1-----| repeat to fade!
A|------|------|------|------|------|------|------|------|
E|------|------|------|------|------|------|------|------|
00:00 / 00:00
Otros videos de esta canción
Repetir
Otros videos de esta canción
Composición de Malice Mizer
287 vistas
    • ½ Tono
    • A
    • Bb
    • B
    • C
    • Db
    • D
    • Eb
    • E
    • F
    • F#
    • G
    • Ab
  • Agregar a la lista

    0 comentarios

    Ver todos los comentarios

    ¿Lograste tocar?

    0 Tocaron 1 Aún no

    ¡Graba un video tocando Au Revoir y envíanoslo!

    00:00 / 00:00
    OK