Cifra Club

Baroque

Malice Mizer

Cifrado: Principal (guitarra y guitarra eléctrica)
tono: G
intro

e---3-------------------------------------------------------------|
B-----0-----------------------------------------------------------|
G-------2---------------------------------------------------------|
D-2---------------------------------------------------------------|
A-----------------------------------------------------------------|
E-----------------------------------------------------------------|
repeat 4x

e---2-------------------------------------------------------------|
B-----0-----------------------------------------------------------|
G-------2---------------------------------------------------------|
D-1---------------------------------------------------------------|
A-----------------------------------------------------------------|
E-----------------------------------------------------------------|
repeat 4x

then repeat entire thing once


e----------------1---1-------------|
B------------------0---0-----------|
G-5-3-3-------------0----0---------|
D-5-3-3--5-----------------4-4-5---|
A----------5----------------4-4-5--|
E----------------------------------|
(Distortion)

Solo thing~

e-------3--------4-3---------------------------|
B-----4---3---------------8-6--------6-4-3-----|
G---5-------3--------5-----------4-------------|
D-----------------------6-------5--------------|
A----------------------------------------------|
E----------------------------------------------|
Repeat
(Medium distortion)


e------------------------------------------------10-11-|
B-4/6--8--13--13-11-------------13-12-13---------------|
G-5/7--8--12---------13-12-10--------------------------|
D------------------------------------------------------|
A------------------------------------------------------|
E------------------------------------------------------|

Verse

e---7----------3------|
B---7---------3-------|
G---7---------4-------|
D-9-----------3-------|
A-9-----------5-------|
E-7-----------3-------|
repeat^ x4 then this^

thats all i tabbed out for now~ email me at * for feedback.....
00:00 / 00:00
Otros videos de esta canción
Repetir
Otros videos de esta canción
Composición de Mana / Tetsu
80 vistas
    • ½ Tono
    • A
    • Bb
    • B
    • C
    • Db
    • D
    • Eb
    • E
    • F
    • F#
    • G
    • Ab
  • Agregar a la lista

    0 comentarios

    Ver todos los comentarios

    ¿Lograste tocar?

    0 Tocaron 0 Aún no

    ¡Graba un video tocando Baroque y envíanoslo!

    00:00 / 00:00
    OK