Cifra Club

Gardenia

Malice Mizer

Tab de bajo: Principal
G|--------|--------|--------|--------|
D|--------|--------|--------|--------|
A|-----035|--5-31--|3-3-31--|-----013|
E|1-1-1---|3-----53|------53|1-1-1---|

G|--------|--------|--------|--------|
D|--------|--------|--------|2-------|
A|------1-|--------|3--333-3|--4-0---|
E|1--1-1-1|33-3-313|------3-|------3-|

G|--------|--------|--------|--------|
D|--------|--------|--------|--------|
A|0-0-0135|--5-31--|3-3-31--|--3-10--|
E|--------|3-----53|------53|1-----31|

G|--------|--------|--------|--------|
D|--------|--------|--------|2-------|
A|------1-|--------|3--333-3|--4-1-0-|
E|1--1-1-1|33-3-313|------3-|--------|

G|7-------|----10--|9-------|--------|
D|--------|9-------|----9---|7-------|
A|--------|--------|--------|----7---|
E|--------|--------|--------|--------|

G|--------|--------|5-------|6-------|
D|--------|5---7-9-|--------|--------|
A|8-------|--------|--------|--------|
E|--------|--------|--------|---0-653|

G|--------|--------|--------|--------|
D|--------|--------|--------|--------|
A|------5-|2-------|------2-|3-------|
E|5--1----|---3--1-|0--3----|---3--0-|

G|--------|--------|--------|--------|
D|--------|--------|--------|2-------|
A|------5-|2-------|3-------|--4-0---|
E|1--5----|---3--1-|----3---|------3-|


G|--------|--------|--------|--------|
D|--------|--------|--------|--------|
A|0-0-0135|--5-31--|3-3-31--|--3-10--|
E|--------|3-----53|------53|1-----31|

G|--------|--------|--------|--------|
D|--------|--------|--------|2-------|
A|------1-|--------|3--333-3|--4-1-0-|
E|1--1-1-1|33-3-313|------3-|--------|

G|--------|
D|---2----|
A|----410-|
E|-------3|

G|--------|--------|--------|--------|
D|--------|--------|--------|--------|
A|0-0-0135|--5-31--|3-3-31--|--3-10--|
E|--------|3-----53|------53|1-----31|

G|--------|--------|--------|--------|
D|--------|--------|--------|2-------|
A|------1-|--------|3--333-3|--4-1-0-|
E|1--1-1-1|33-3-313|------3-|--------|

G|--------|--------|--------|--------|
D|--------|--------|--------|--------|
A|0-0-0135|--5-31--|3-3-31--|--3-10--|
E|--------|3-----53|------53|1-----31|

G|--------|--------|--------|--------|
D|--------|--------|--------|2-------|
A|------1-|--------|3--333-3|--4-1-0-|
E|1--1-1-1|33-3-313|------3-|--------|


G|--------|--------|--------|--------|
D|--------|--------|--------|--------|
A|--------|--------|--------|--------|
E|33333333|00000000|11111113|55555555|

G|--------|--------|--------|--------|
D|--------|--------|--------|---3----|
A|--------|--------|----3303|----5-5-|
E|33333333|55555555|1112----|2----5-5|

G|--------|--------|--------|--------|
D|--------|--------|--------|--------|
A|--------|--------|--------|--------|
E|33333333|00000000|11111113|55555555|

G|--------|--------|--------|--------|
D|--------|--------|--------|--------|
A|--------|--------|------4-|----5-5-|
E|33333333|55555555|111133-5|3----5-5|

G|--------|--------|--------|
D|---2----|--------|2-------|
A|----410-|3-------|--4-0---|
E|-------3|----3---|------3-|

G|--------|--------|--------|--------|
D|--------|--------|--------|--------|
A|0-0-0135|--5-31--|3-3-31--|--3-10--|
E|--------|3-----53|------53|1-----31|

G|--------|--------|--------|--------|
D|--------|--------|--------|2-------|
A|------1-|--------|3--333-3|--4-1-0-|
E|1--1-1-1|33-3-313|------3-|--------|

G|--------|
D|---2----|
A|----410-|
E|-------3|

G|--------|--------|--------|--------|
D|--------|--------|--------|--------|
A|0-0-0135|--5-31--|3-3-31--|--3-10--|
E|--------|3-----53|------53|1-----31|

G|--------|--------|--------|--------|
D|--------|--------|--------|2-------|
A|------1-|--------|3--333-3|--4-1-0-|
E|1--1-1-1|33-3-313|------3-|--------|

G|--------|--------|--------|--------|
D|--------|--------|--------|--------|
A|0-0-0135|--5-31--|3-3-31--|--3-10--|
E|--------|3-----53|------53|1-----31|

G|--------|--------|--------|--------|
D|--------|--------|--------|2-------|
A|------1-|--------|3--333-3|--4-1-0-|
E|1--1-1-1|33-3-313|------3-|--------|

G|--------|--------|--------|--------|
D|--------|--------|--------|--------|
A|--------|--------|--------|--------|
E|33333333|00000000|11111113|55555555|

G|--------|--------|--------|--------|
D|--------|--------|--------|---3----|
A|--------|--------|----3303|----5-5-|
E|33333333|55555555|1112----|2----5-5|

G|--------|--------|--------|--------|
D|--------|--------|--------|--------|
A|--------|--------|--------|--------|
E|33333333|00000000|11111113|55555555|

G|--------|--------|
D|--------|--------|
A|--------|--------|
E|33333333|55555555|

G|--------|
D|---2----|
A|----410-|
E|-------3|

G|--------|--------|--------|--------|
D|--------|--------|--------|--------|
A|--------|--------|--------|--------|
E|33333333|00000000|11111113|55555555|

G|--------|--------|--------|--------|
D|--------|--------|--------|--------|
A|--------|--------|------4-|----5-5-|
E|33333333|55555555|111133-5|3----5-5|

G|--------|--------|--------|--------|
D|--------|--------|--------|--------|
A|0-0-0135|--5-31--|3-3-31--|--3-10--|
E|--------|3-----53|------53|1-----31|

G|--------|--------|--------|--------|
D|--------|--------|--------|2-------|
A|------1-|--------|3--333-3|--4-1-0-|
E|1--1-1-1|33-3-313|------3-|--------|

G|--------|--------|--------|--------|
D|--------|--------|--------|--------|
A|0-0-0135|--5-31--|3-3-31--|--3-10--|
E|--------|3-----53|------53|1-----31|

G|--------|--------|--------|--------|
D|--------|--------|--------|2-------|
A|------1-|--------|3--333-3|--4-1-0-|
E|1--1-1-1|33-3-313|------3-|--------|

G|--------|--------|--------|--------|
D|--------|--------|--------|--------|
A|-----035|--5-31--|3-3-31--|-----013|
E|1-1-1---|3-----53|------53|1-1-1---|

G|--------|--------|--------|--------|
D|--------|--------|--------|2-------|
A|------1-|--------|3--333-3|--4-1-0-|
E|1--1-1-1|33-3-313|------3-|--------|
00:00 / 00:00
Otros videos de esta canción
Repetir
Otros videos de esta canción
Composición de Klaha / Mana
Colaboración y revisión:
  • Rukia
56 vistas

0 comentarios

Ver todos los comentarios

¿Lograste tocar?

0 Tocaron 0 Aún no

¡Graba un video tocando Gardenia y envíanoslo!

00:00 / 00:00
OK