Cifra Club

Tiktai Tavyje

Andrius Mamontovas

Cifrado: Principal (guitarra y guitarra eléctrica)
Selo Cifra Club: esta cifra foi revisada para atender aos critérios oficiais da nossa Equipe de Qualidade.
tono: D
[Intro]
E|-------------------------------------------------------------------------|
B|-------------------------------------------------------------------------|
G|-22222222----------------------------------------------------------------|
D|-22222222-22220000----------44444444-77777777-77777777-77777777-99999999-|
A|----------22222222-44444444-XXXXXXXX-55555555-44444444-77777777-99999999-|
E|-------------------22222222-22222222-------------------------------------|

[Verse]
E|-------------------------------------------------------------------------|
B|-------------------------------------------------------------------------|
G|-22222222----------------------------------------------------------------|
D|-22222222-22220000----------44444444-77777777-77777777-77777777-99999999-| x 2
A|----------22222222-44444444-XXXXXXXX-55555555-44444444-77777777-99999999-|
E|-------------------22222222-22222222-------------------------------------|

[Chorus]
E|----------------------------| |-----------------------------|
B|----------------------------| |--------222222---------------|
D|-777777-666666-999999999999-|     |-222222-222222-222222-111111-|
E|-777777-666666-999999999999-| x 2 |-222222--------222222-222222-| x 2
B|-555555-444444-777777777777-| |--------222222-222222-222222-|
G|----------------------------| |-222222----------------------|

[Verse]
E|-------------------------------------------------------------------------|
B|-------------------------------------------------------------------------|
G|-22222222----------------------------------------------------------------|
D|-22222222-22220000----------44444444-77777777-77777777-77777777-99999999-| x 2
A|----------22222222-44444444-XXXXXXXX-55555555-44444444-77777777-99999999-|
E|-------------------22222222-22222222-------------------------------------|

[Chorus]
E|----------------------------| |-----------------------------|
B|----------------------------| |--------222222---------------|
D|-777777-666666-999999999999-|     |-222222-222222-222222-111111-|
E|-777777-666666-999999999999-| x 2 |-222222--------222222-222222-| x 2
B|-555555-444444-777777777777-| |--------222222-222222-222222-|
G|----------------------------| |-222222----------------------|

[Bridge]
E|-------------------22222222-22222222-|
B|-22222222----------22222222-33333333-|
D|-22222222-11111111-33333333-22222222-|
E|-22222222-22222222-44444444----------| x 4
B|-22222222-22222222-44444444----------|
G|-------------------22222222----------|

[Chorus]
E|----------------------------| |-----------------------------|
B|----------------------------| |--------222222---------------|
D|-777777-666666-999999999999-|     |-222222-222222-222222-111111-|
E|-777777-666666-999999999999-| x 2 |-222222--------222222-222222-| x 2
B|-555555-444444-777777777777-| |--------222222-222222-222222-|
G|----------------------------| |-222222----------------------|

[Outro]
E|-----------------------------|
B|--------2--------------------|
G|-2------2------2------1------|
D|-2-------------2------2------|
A|--------2------2------2------|
E|-2---------------------------|
Otros videos de esta canción
    6 exhibiciones
      • ½ Tono
      • A
      • Bb
      • B
      • C
      • Db
      • D
      • Eb
      • E
      • F
      • F#
      • G
      • Ab
    • Agregar a la lista

    Afinação da cifra

    Afinador online

      Ops (: Contenido disponible solo en portugués.
      OK