Enviar cifraEntrar

Chaman

Maná

Acordes: Principal
reproducciones 262
Tono: D
Introduccion:


|-------7-------------------------5-------------------------------|
|---7-----7--------5----------5-----5--------5--------------------|
|-----7----------7---7----------6----------7---7------------------|
|-9------------7-------7----7------------7-------7----------------|
|-----------------------------------------------------------------|
|-----------------------------------------------------------------|


Corros usados:


|--7----5----7----3----5----2-------------------------------------|
|--7----5----7----3----5----2-------------------------------------|
|--7----7----9----4----6----3-------------------------------------|
|--9----7----9----5----7----4-------------------------------------|
|--9----5----7----5----7----4-------------------------------------|
|--7----5----7----3----5----2-------------------------------------|


   Bm   D5   E5   G    A    F#

__________________________________________________________________


 Toca introduccion hasta * 

Iva andando en el camino 
de un desierto de su luz
Hacia el norte era real
Iva buscando entre cactus
Que illuminan con su luz
Que illuminan la verdad

Oh no, je hea, oh no,
Yo te tengo que encontrar

 Bateria entra 

Al fin llegamos a una selva
en el poblado de Manaus
Amazona tropical
Alli arribamos a un santuario
Y nos recibio un chaman
Nos tomo en su regaso*

  Bm     D5  E5     G  D5   E5      A  D5  E5      G - F# - A 

Jamas, dejes de amar cuenta el chaman el amor es todo   

 Bm     D5  E5     G  D5   E5      A  D5  E5      G - F# - A 

Jamas, dejes de amar dejes de sonar el amor es todo

 Toca introduccion hasta * 

Ya en medio de la selva
entre los ritios del chaman
Yo te empese a mirar
Y comensamos a reir
Juntos comensamos a sonar
Na na na na na na na na na

 ESTRIBILLO 

  Bm     D5  E5     G  D5   E5      A  D5  E5      G - F# - A 

Jamas, dejes de amar cuenta el chaman el amor es todo   

 Bm     D5  E5     G  D5   E5      A  D5  E5      G - F# - A 

Jamas, dejes de amar dejes de sonar el amor es todo

 Solo 

 Bajo y bateria solamente 

Si se muere    4 times 


|----------------|
|----------10----|
|--11------------|
|------12--------|    Harmonicas 
|----------------|
|----------------|



 Toca introduccion hasta * 

Iva traer flores el deseo
Cubierto de mariposas el la piel
El aura illuminaba el rio
Nunca dejes de amar
Nos decia el chaman

 Bm 
Oh no             Je hea

 Bm                   A  A  F#  F# 
Oh no             Je hea
  • 1
  • 2
  • 3
  • 4
  • 5
  • 6
  • 7
  • 8
  • 9
  • 10
  • 11
  • 12
    Acordes para:

      0 comentarios

        mostrar mas comentarios

        ¿Conseguiste tocar?

        0tocaron0aún no

        ¡Grave un vídeo tocando Chaman y envie para nosotros!

        00:00 / 00:00
        outros vídeos desta música
        repetirqualidadeautomática
        • automática
        Outro vídeos desta música
          00:00 / 00:00
          automática
          • automática
          Acordes para:guitarra
          dificuldadreproduccionescontribuciones
          cerrarplay/pause subir/bajar velocidad
            acordes
            cerrar
            OK
            Feedback