Cifra Club

Cuando los Angeles Lloran

Maná

Cifrado: Principal (guitarra y guitarra eléctrica)
tono: D
Bm                    A                          G                     D
  A Chico Mendez lo mataron era un defensor y un ángel de toda la amazonia
Bm                    A                    G                      D
  él murió a sangre fría lo sabía Collor de Mello y también la policía
F#m                    Bm                          G                           D
  cuando los ángeles lloran lluvia cae sobre la aldea lluvia sobre el campanario
                  A
  pues alguien murió

Bm G              D     A
    Un angel cayó,
Bm G              D     A
   un angel murió,
Bm G              D     A
   un angel se fué
Bm G              D     A
   y no volverá

Bm G              D     A
    Un angel cayó,
Bm G              D     A
   un angel murió,
Bm G              D     A
   un angel se fué
Bm G              D     A
   y no volverá
Solo:
(04:09)
(várias vezes)             (4 vezes)       (4 vezes)    (+/- 2 vezes)
E|----------|          e|---4-4--------|---5-5--------|---4-4--------|
B|----------|          B|--------5-5---|--------5-5---|--------5-5---|
G|-8-8--5-5-|  depois  G|--------------|--------------|--------------|
D|----------|          D|--------------|--------------|--------------|
A|----------|          A|--------------|--------------|--------------|
E|----------|          E|--------------|--------------|--------------|

(04:31)
E|-----4-3/4--3/4--7-7/8----------------------------------------------------------------------------
B|---5--------------------9-7-5-4--4-4-4--5--7-7--9-5--7-4--5---4-------------------5-4-------------
G|-6----------------------------------------------------------6---4--2--1~~-0h1-1-1-----1-----------
D|--------------------------------------------------------------------------------------------------
A|--------------------------------------------------------------------------------------------------
E|--------------------------------------------------------------------------------------------------

E|------------9-8-9--9h11--11-12-14--11-12--9-11--7-9--5-7--4-5----4-------------------------------|
B|---------------------------------------------------------------7----5-7--4-5----4----------------|
G|-1-2-4-6-8--9-8-9--9h11-------------------------------------------------------6----4-6-----4-----|
D|---------------------------------------------------------------------------------------4h6---4h6-|
A|-------------------------------------------------------------------------------------------------|
E|-------------------------------------------------------------------------------------------------|

Bm                    A                          G                     D
  Cuando el asesino huía Chico Méndez se moría la selva se ahogaba en llanto
Bm                    A                    G                      D
  El dejó dos lindos críos una esposa valerosa y una selva en agonía
F#m                    Bm                          G                           D
  cuando los ángeles lloran es por cada árbol que muere cada estrella que se apaga
                  A
  Oh, no, no

Bm G              D     A
    Un angel cayó
Bm G              D     A
   un angel murió
Bm G              D     A
   un angel se fué
Bm G              D     A
   y no volverá

Bm G              D     A
    Un angel cayó
Bm G              D     A
   un angel murió
Bm G              D     A
   un angel se fué
Bm G              D     A
   y no volverá
Composición de Fher
Colaboración y revisión:
4.378 vistas
    • ½ Tono
    • A
    • Bb
    • B
    • C
    • Db
    • D
    • Eb
    • E
    • F
    • F#
    • G
    • Ab
  • Agregar a la lista

    0 comentarios

    Ver todos los comentarios

    ¿Lograste tocar?

    1 Tocaron 0 Aún no

    ¡Graba un video tocando Cuando los Angeles Lloran y envíanoslo!

    00:00 / 00:00
    Outros vídeos desta música
    Repetir Calidad Automático
    Outros vídeos desta música
    00:00 / 00:00
    Automático
    OK