Cifra Club

En el muelle de San Blás (Unplugged)

Maná

Cifrado: Principal (guitarra y guitarra eléctrica)
tono: D
Intro

      Em             A           D            G
e|------------0-----------0----------2-----------3|
B|-------0------------2----------3------------0---|
G|-----0---0--------2---2------2---2--------0---0-|
D|---------------------------0--------------------|(a primeira guitarra sola ao fundo)
A|---------------0--------------------------------|
E|--0------------------------------------3--------|

Riff1
      Em                 A              D            G
e|---------7-------------5--------------5----------------3-----2---|
b|-----8------8------5------5-------5-------5--------3-----3-----3-|
g|---9---9--9---9--6---6--6---6---7---7---7---7----4---4-----4-----|
d|-----------------------------------------------------------------|
a|------------------------------5----------------------------------|
E|--0-------------5------------------------------3-----------------|


sola en el olvido, sola con su espíritu x 2

Riff1 (Ele é tocado ao fundo enquanto outro violão faz os acordes)
inicia o Baixo

Em                 A                     D                         G
Ela despidió a su amor, el partió en un barco en el muelle de san Blas
Em                 A               D                    G
El juro que volvería y empapada en llanto ella juro que esperaría
Em                 A                 D                     G
miles de lunas pasaron, y siempre ella estaba en el muelle esperando
Em                 A                         D              G    (Em A   D    G x2)
muchas tardes se anidaron, se anidaron en su pelo y en sus labios, ( uhhhhhhhh x2)

Em                 A                 D                      G
llevaba el mismo vestido y por si el volviera no se fuera a equivocar 
Em                 A                 D                     G
los cangrejos le mordían, su ropaje, su tristeza y su ilusión
Em                 A                 D                       G
y del tiempo se escurrió , y sus ojos se le llenaron de amaneceres
Em                 A                 D                G
y del mar se enamoro, y su cuerpo se enraizó en el muelle

Coro
(se usan los tonos pero punteándolos)
D                A
Sola, sola en el olvido (riff2)
D                 A
Sola, sola con su espíritu(riff2)
D                 A
Sola, sola con su amor el mar(riff2)
G    A                  D
Sola, en el muelle de San Blas(riff3)

Riff2
    D            A               D              A
e|--------1--------------0--------------1---------------0-------|
b|------3----3-------2-------2-------3------3-------2-------2---|
g|----2-2-2-2---2---2---2---2---2---2--2---2---2---2---2---2----|
d|--0----------------------------0------------------------------|
a|---------------0------------------------------0---------------|
E|--------------------------------------------------------------|
Riff3   
 G               A                  D
E|----------1----------------0---------2-------|
B|------0-------0--------2--------2----3-------|
G|----0---0---0---0----2---2----2---2--2-------|
D|-------------------------------------0-------|
A|------------------0------------------x-------|
E|--3----------------------------------x-------|

en esta parte se repite la intro o se tocan sus tonos
(háganlo como mas les guste)

Em,D,A,G,D x2
(riff 1)

Em             A                    D                G
 Su cabello se blanqueo pero ningún barco a su amor le devolvía
Em                A         D                    G
Y en el pueblo le decían , le decían la loca del muelle de San Blas
Em             A             D                   G 
Y una tarde de abril la intentaron  trasladar al manicomio
Em             A            D                  G
Nadie la pudo arrancar y del mar nunca jamás la separaron

Coro
Interludio o brigde
(aquí se tocan los tonos de las estrofas tantas veces sea necesario para regresar a la canción)
D,A x 3 y la ultima G,A,D
(esta parte es como en el coro pero solo tocan la guitarra y la voz principal de la canción)
Sola en el olvido(riff2) 
Sola con su espiritu(riff2)
Sola con su amor el mar(riff3)
Coro

         
E|--5-5----5-5----3-3----3-3------|
B|--5-5----5-5----3-3----3-3------|   (esto por 4 veces)
G|---6-6----7-7----4-4----4-4-----|
D|---7-7----7-7----5-5----4-4-----|
A|---x-x----x-x----x-x----x-x-----|
E|---x-x----x-x----x-x----x-x-----|

D                          G
Se quedo, se quedo ,sola , sola
D                                      G
Se quedo, se quedo con el sol y con el mar
D          
Se quedo ahí , se quedo hasta el fin 
G                                      D
Se quedo ahí, se quedo en el muelle de San Blas
G                       D    
Oh no no no , sola sola se quedo
Composición de Ed)
Colaboración y revisión:
  • Eduardo Fontinelle
  • Christhian Gruhn
  • Daniel Boeno
17.253 vistas
    • ½ Tono
    • A
    • Bb
    • B
    • C
    • Db
    • D
    • Eb
    • E
    • F
    • F#
    • G
    • Ab
  • Agregar a la lista

    0 comentarios

    Ver todos los comentarios

    ¿Lograste tocar?

    4 Tocaron 0 Aún no

    ¡Graba un video tocando En el muelle de San Blás (Unplugged) y envíanoslo!

    00:00 / 00:00
    Outros vídeos desta música
    Repetir Calidad Automático
    Outros vídeos desta música
    00:00 / 00:00
    Automático
    OK