Cifra Club

En El Muelle de San Blas

Maná

Cifrado: Principal (guitarra y guitarra eléctrica)
tono: D
[Intro] Em  A9  D  G9
        Em  A9  D  G9

    Em              A9
E|---------7---------------5----------------|
B|-----8-------8-------5-------5------------|
G|---9---9---9---9---6---6---6---6----------|
D|------------------------------------------|
A|------------------0-----------------------|
E|--0---------------------------------------|

   D               G9
E|----------5---------------3-----2---------|
B|------5-------7-------3-----------3-------|
G|----7---7---7---7---4---4---4-------------|
D|--0---------------------------------------|
A|------------------------------------------|
E|-------------------3----------------------|

[Primeira Parte]

Em                     A9
  Ella Despidió a su amor 
                 D      
El partio en un barco 
                      G9
En el muelle de San Blas
Em                    A9     
  El juro y que volvería 
                D     
Y empapada en llanto ella 
                G9
Juro que esperaria
Em                 A9                
  Miles de lunas pasaron 
                  D/F#
Y siempre ella estaba en 
          G9
El muelle esperando
Em                     A9                    
  Muchas tardes se anidaron 
                D/F#     G
Se anidaron en su pelo y en sus labios

( Em  A9  D  G9 )
( Em  A9  D/F#  G9 )

[Segunda Parte]

Em                     A9  
  Llevaba el mismo vestido 
                D          
Y por si el volviera no 
                  G9
Se fuera a equivocar
Em                     A9  
  Los cangrejos le mordian 
       D                          G9
Sus ropajes, su tristeza y su ilusión
Em                      A9   
   Y el tiempo se escurrió 
                   D/F#        G9
Y sus ojos se le llenaron de amaneceres
Em                   A9         
  Y del mar se enamoró 
                   D/F#    G9
Y su cuerpo se enrraizó en el muelle

[Refrão]

       D             A/C#  
Sola, sola, en el olvido
   Bm7                A
Sola, sola, con su espiritu
       D             A/C#    
Sola, sola, con su amor en mar
   G9  A                       D
Sola,    en el muelle de San Blas

( Em  A9  D  G9 )

[Terceira Parte]

Em                     A9   
  Su cabello se blanqueó pero 
        D                       G9
Ningun barco a su amor le devolvía
Em                     A9                 
  Y en el pueblo le decían
              D               
Le decían la loca 
                    G9
Del muelle de San Blas
Em                  A9          
  Y una tarde de abril 
                   D/F#     G9
La intentaron trasladar al manicomio
Em                    A9              
  Nadie la pudo arrancar 
                 D/F#     G9
Y del mar nunca jamás la separaron

[Refrão]

       D             A/C#  
Sola, sola, en el olvido
   Bm7                A
Sola, sola, con su espiritu
       D             A/C#    
Sola, sola, con su amor en mar
   G9  A                       D
Sola,    en el muelle de San Blas

[Solo]

     Bm7
E|---------------2---------------------2----|
B|------3---2------2---------3---2-------2--|
G|----2---2----2-----------2---2----2-------|
D|------------------------------------------|
A|--2-----------------2---------------------|
E|------------------------------------------|

   G6
E|-----3---2---0-------3---2---0------------|
B|-----3-3---3---3-----3-3---3---3----------|
G|---0---------------0----------------------|
D|------------------------------------------|
A|------------------------------------------|
E|-3---------------3------------------------|

     Bm7
E|---------------2---------------------2----|
B|------3---2------2---------3---2-------2--|
G|----2---2----2-----------2---2----2-------|
D|------------------------------------------|
A|--2-----------------2---------------------|
E|------------------------------------------|

   A     A4          A7(4)   
E|-------------------3-3-3-3-3-3-3-3--------|
B|-----2---3---3-----3-3-3-3-3-3-3-3--------|
G|---2---2---2---2---2-2-2-2-2-2-2-2--------|
D|-------------------2-2-2-2-2-2-2-2--------|
A|-0-----------------0-0-0-0-0-0-0-0--------|
E|------------------------------------------|

[Refrão]

       D             A/C#  
Sola, sola, en el olvido
   Bm7                A
Sola, sola, con su espiritu
       D             A/C#    
Sola, sola, con su amor en mar
   G9  A      
Sola
       D             A/C#  
Sola, sola, en el olvido
   Bm7                A
Sola, sola, con su espiritu
       D             A/C#    
Sola, sola, con su amor en mar
   G9  A      
Sola
                      D
En el muelle de San Blas

[Final] D  G  D  G
        D  G  D  G 
        D  G  D  G 
        D  G  D  G
00:00 / 00:00
Otros videos de esta canción
Repetir
Otros videos de esta canción
Composición de Alex González / Fernando Olvera Sierra
16.296 vistas
    • ½ Tono
    • A
    • Bb
    • B
    • C
    • Db
    • D
    • Eb
    • E
    • F
    • F#
    • G
    • Ab
  • Agregar a la lista

    0 comentarios

    Ver todos los comentarios

    ¿Lograste tocar?

    15 Tocaron 0 Aún no

    ¡Graba un video tocando En El Muelle de San Blas y envíanoslo!

    00:00 / 00:00
    OK