Cifra Club

Mariposa Traicionera

Maná

Cifrado: Principal (guitarra y guitarra eléctrica)
tono: A
[Intro] Fm  Eb  C#  G#

[Solo]

E|----------------------8----------8--------|
B|--9----9----9----9----9----9-----9-----9--|
G|-10---10---10---10--------10----------10--|
D|------------------------------------------|
A|------------------------------------------|
E|------------------------------------------|

E|-8-------------------------------------6--|
B|-9----9-----11/8---8----8----8----8----8--|
G|-----10-----10/8---8----8----8----8-------|
D|------------------------------------------|
A|------------------------------------------|
E|------------------------------------------|

E|------6-----------------------------------|
B|-8----8----8-----9/6----------------------|
G|-8-----------8---------8-----8/6----------|
D|------------------------------------------|
A|------------------------------------------|
E|------------------------------------------|

E|-----4------4------4------4------4--------|
B|--6-----6------6------6------6------6/8---|
G|--6-----6------6------6------6------6/8---|
D|--6----5h6p5------------------------------|
A|--------------8---6---8-------------------|
E|------------------------------------------|

E|------------------------------------------|
B|--6-----------4---------------------------|
G|--6-----3/5-------5-----------------------|
D|------------------------------------------|
A|------------------------------------------|
E|------------------------------------------|

Fm                 Eb
Eres como una mariposa

Vuelas y te posas
                C#
Vas de boca en boca
                              G#
Fácil y ligera de quien te provoca
Fm                      Eb
Yo soy raton de tu ratonera
                             C#
Trampa que no mata pero no libera
                   G#
Vivo muriendo prisionero

C#    Eb          G#
Mariposa traicionera
           Fm
Todo se lo lleva el viento
C#    Eb        C7
Mariposa no regreso

F
Ay, mariposa de amor

Mi mariposa de amor
                C
Ya no regreso contigo
Gm
Ay, mariposa de amor
                 C7
Mi mariposa de amor
                    F
Nunca jamas junto a ti

Vuela amor, vuela dolor
                   Bb
Y no regreses a un la'o
                    F
Y ábrete de flor en flor
     C7             F  Bb
Seduciendo a los pistilos
                F
Y vuela cerca del sol
          C7                F
Pa' que sientas lo que es dolor


Ay mujer, como haces daño

Pasan los segundo cual si fueran años

Mira estos celos me están matando

Ay mujer, que fácil eres

Abres tus alitas, muslos de colores

Donde se posan tus amores

C#    Eb          G#
Mariposa traicionera
           Fm
Todo se lo lleva el viento
C#    Eb        C7
Mariposa no regreso

F
Ay, mariposa de amor

Mi mariposa de amor
                C
Ya no regreso contigo
Gm                   
Ay, mariposa de amor
                C7
Mi mariposa de amor
                   F
Nunca jamas junto a ti

Vuela amor, vuela dolor
                     Bb
Que tengas suerte en tu vida
                F
Ay, ay, ay, ay, ay, dolor
C7                   F
Yo te lloré todo un río
Bb                F
Ay, ay, ay, ay, ay, amor
C7                F
Tú te me vas a volar
Composición de Fher Olvera
Colaboración y revisión:
23.056 vistas
    • ½ Tono
    • A
    • Bb
    • B
    • C
    • Db
    • D
    • Eb
    • E
    • F
    • F#
    • G
    • Ab
  • Agregar a la lista

    0 comentarios

    Ver todos los comentarios

    ¿Lograste tocar?

    6 Tocaron 2 Aún no

    ¡Graba un video tocando Mariposa Traicionera y envíanoslo!

    00:00 / 00:00
    Outros vídeos desta música
    Repetir Calidad Automático
    Outros vídeos desta música
    00:00 / 00:00
    Automático
    OK