Cifra Club

Rayando El Sol

Maná

Cifrado: Versão 4 (guitarra y guitarra eléctrica)
tono: G
lo único que corregí es la segunda parte del intro lo demás lo escucho bien.
E|------| INTRO -----

acompañamiento con otra guitarra: G D Em C G Bm C D Em

       G            D           Em          C
E|-------------|-------------|-------------|-------------|
B|--2----------|--0----------|--2----------|--3----------|
G|---0---------|---0---------|---2---------|---2---------|
D|----0--------|----2--------|----0--------|----0--------|
A|-----3-0-1---|-----3-0-1---|-----3-0-1---|-----3-0-1---|
E|-------------|-------------|-------------|-------------|

      G            Bm           C          D         Em
E|-------------|-------------|-------------|-------------|----------|
B|-2-----------|-2-----------|-3-----------|-0-----------|-2--------|
G|--0----------|--4----------|--2----------|--0----------|--2-------|
D|---0---------|---4---------|---0---------|---2---------|---0------|
A|----3-0-1----|----3-0-1----|----3-0-1----|----3-0-1----|----0-----|
E|-------------|-------------|-------------|-------------|------3---|

            G
Rayando el sol
             D      C
rayando por ti
        G
esta pena me duele
     C            D     C
me quema sin tu amor


       Bm
No me has llamado
 C             D
estoy desesperado
     Bm
son muchas lunas
 C                 D
las que te he llorado


Coro:

              G       D
Rayando el sol,   oh eh ooh
         Em        D
desesperacion
C        G               Bm
 es mas facil llegar al sol
             C
que a tu corazon


D              G       D
Me muero por ti , oh eh ooh
             Em       D
viviendo sin  ti
C         G             Bm
 y no aguanto me duele tanto
       C       D                   Em
estar asi,            rayando el sol


E|----| INTERMEDIO---

E|-10/12-12-10----------------------|
B|-------------13-12-10-------------|
G|----------------------12-7/9-9~~~-|
D|----------------------------------|

               G
A tu casa yo fui
               D        C
y no te encontre
       G                          C
en el parque, en la plaza, en el cine
           D       C
yo te busque


    Bm           C
Te tengo   atrapada
                    D
entre mi piel y mi alma
     Bm
mas ya no puedo tanto
C                      D
y quiero estar junto a ti



D              G       D
Me muero por ti , oh eh ooh
             Em       D
viviendo sin  ti
C         G             Bm
 y no aguanto me duele tanto
       C       D                   Em
estar asi,            rayando el sol

G  O DE GUITARRA         LLEVA DISTORCION

E|-12br-12p10-8-12br-12-10------------------------------------7-5------|
B|-------------------------10/5-7-7~~-7-7-7p5--------------7-7---------|
G|--------------------------------------------7-4----4-4-7-7-----------|
D|-------------------------------------------------7-------------------|

E|--------------------------------------15-14-----------12br---14/15|
B|-----------13-13-------------------15------15--14-----------------|
G|-9-9-12-12-------12-9-11-11-14-14---------------------------------|
D|------------------------------------------------------------------|

(3:04)
E|-----10-8-|
B|-5/7------|
G|----------|
(3:07)
E|-10/12-1-12br-|
B|--------------|
G|--------------|
(3:10)
E|-10/12-10-12/14---17----14---12-|
B|--------------------------------|
G|--------------------------------|
Composición de Alex / Fher
3 vistas
    • ½ Tono
    • A
    • Bb
    • B
    • C
    • Db
    • D
    • Eb
    • E
    • F
    • F#
    • G
    • Ab
  • Agregar a la lista

    0 comentarios

    Ver todos los comentarios

    ¿Lograste tocar?

    0 Tocaron 0 Aún no

    ¡Graba un video tocando Rayando El Sol y envíanoslo!

    00:00 / 00:00
    Outros vídeos desta música
    Repetir Calidad Automático
    Outros vídeos desta música
    00:00 / 00:00
    Automático
    OK