Cifra Club

Rayando El Sol

Maná

Cifrado: Versão 6 (guitarra y guitarra eléctrica)
tono: G
intro:

     G          D         Em          C
E|--3----------2----------0----------0----------|
B|--0-0-3------3-0-3------0-0-3------1-0-3------|
G|--0-----4-5--2-----4-5--0-----4-5--0-----4-5--|
D|--0----------0----------2----------2----------|
A|--2----------0----------2----------3----------|
E|--3---------------------0----------0----------|

     G         Bm        C        D         Em
E|--3----------2--------0--------2----------0---3--|
B|--0-0-3------3-0-3----1-0-3----3-0-3------0-0----|
G|--0-----4-5--4-----4--0-----4--2-----4-5--0------|
D|--0----------4--------2--------0----------2------|
A|--2----------2--------3--------0----------2------|
E|--3-------------------0-------------------0------|


Verso:


               G   C                    D   C
   Rayando el sol,         rayando por ti,
E|-----------------3| �-0--------------------2-2----0-0---0----|
B|-----------------0--1--------------------3------1-------1--|
G|-----------------0--0--------------------2---2--0---0------|
D|-----------------0--2--------------------0------2----------|
A|-----------------2--3--------------------0------3----------|
E|-----------------3--0--------------------------------------|

         G                  C            D   C
   esta pena me duele, me quema sin tu amor,
E|------3---3--------------0---0-----------2---------3--|
B|------0-----0------------1-----1---------3-5-3---5----|
G|------0-0----------------0-0-------------2-----4------|
D|------0------------------2---------------0------------|
A|------2------------------3---------------0------------|
E|------3------------------0----------------------------|

         Bm              C          D   C
   no me has llamado, estoy desesperado,
E|-------2-----3--------0-----0------2-0--------3-5--|
B|-------3---3----------1---1--------3---3--5-3------|
G|-------4-4------------0-0----------2---------------|
D|-------4--------------2------------0---------------|
A|-------2--------------3------------0---------------|
E|----------------------0----------------------------|

        Bm           C                D
   son muchas lunas las que te he llorado
E|-----2-2----------0-0---------------2-----------|
B|-----3-----3------1-----1-----------3-5-3-5--3--|
G|-----3---3--------0---0-------------2-----------|
D|-----4------------2-----------------0-----------|
A|-----2------------3-----------------0-----------|
E|------------------0-----------------------------|


CORO:

               G       D             Em   C
   Rayando el sol, ohe oh, desesperacion,
E|------------3//-----2//-------------------------|
B|------------3//-----3//-------------3/53-------|
G|------------4//-----2//-------------------4-4b--|
D|------------5//-----0//-------------------------|
A|------------5//-----0//-------------------------|
E|------------3//---------------------------------|

           G              Bm                 C   D
   es mas facil llegar al sol que ha tu corazon,
E|--------3---------------2-----------------0---------|
B|--------3---------------3-----------------1---------|
G|--------4---------------4-----------------0---------|
D|--------5---------------4-----------------2---------|
A|--------5---------------2-----------------3---------|
E|--------3---------------------------------0---------|

                 G      D                Em  C
   me muero por ti, ohe oh, viviendo sin ti,
E|-------------3//-----2//--------------0//--------------|
B|-------------3//-----3//--------------0//--3/53-------|
G|-------------4//-----2//--------------0//--------4-4b--|
D|-------------5//-----0//--------------2//--------------|
A|-------------5//-----0//--------------2//--------------|
E|-------------3//----------------------0//--------------|

           G               Bm           C      D
   y no aguanto, me duele tanto estar asi...
E|--------3----------------2-----------0-0----2--|
B|--------3----------------3-----------1------3--|
G|--------4----------------4-----------0---0--2--|
D|--------5----------------4-----------2------0--|
A|--------5----------------2-----------3------0--|
E|--------3----------------------------0---------|

                 Em
   ...rayando el sol.
E|-------------------10/12--12-10-8-7--------|
B|------------------------------------10-8~--|
G|-------------------------------------------|
D|-------------------------------------------|
A|-------------------------------------------|
E|-------------------------------------------|



                 G   C                      D  C
   A tu casa yo fui,         y no te encontre,
E|--------------3--------0---0-------------2---3---3-5------|
B|--------------0-0-3----1-----1-----------3-3---5-----3-5--|
G|--------------0-----4--0-0---------------2----------------|
D|--------------0--------2-----------------0----------------|
A|--------------2--------3-----------------0----------------|
E|--------------3--------0----------------------------------|

        G                      C                 D     C
en el parque, en la plaza,en el cine yo te busque,
E|-------3----------------------0-----------------2-----3--------|
B|-------0----------------------1-----------------3-5-3---5-5-3-5|
G|-------0----------------------0-----------------2--------------|
D|-------0----------------------2-----------------0--------------|
A|-2-----2----------------------3-----------------0--------------|
E|--3/5--3----------------------0--------------------------------|

      Bm         C                      D     C
   te tengo atrapada entre mi piel y mi alma,
E|----2-----3---0----------------------2-------2-5-0--|
B|----3-0-3-----1---0-5----------------3-3-5-3--------|
G|----4---------0-0--------------------2--------------|
D|----4---------2----------------------0--------------|
A|----2---------3----------------------0--------------|
E|--------------0-------------------------------------|

              Bm             C                   D
   mas ya no puedo tanto y quiero estar junto a ti,
E|------------2-------------0-------------------2------------|
B|------------3-------------1-------------------3-3-5-3-5-7--|
G|------------4-------------0-------------------2------------|
D|------------4-------------2-------------------0------------|
A|------------2-------------3-------------------0------------|
E|--------------------------0--------------------------------|

- CORO

               G       D             Em   C
   Rayando el sol, ohe oh, desesperacion,
E|------------3//-----2//-------------------------|
B|------------3//-----3//-------------3/53-------|
G|------------4//-----2//-------------------4-4b--|
D|------------5//-----0//-------------------------|
A|------------5//-----0//-------------------------|
E|------------3//---------------------------------|

           G              Bm                 C   D
   es mas facil llegar al sol que ha tu corazon,
E|--------3---------------2-----------------0---------|
B|--------3---------------3-----------------1---------|
G|--------4---------------4-----------------0---------|
D|--------5---------------4-----------------2---------|
A|--------5---------------2-----------------3---------|
E|--------3---------------------------------0---------|

                        G      D                Em  C
Uhhhhhh,  me muero por ti, ohe oh, viviendo sin ti,
E|----------------------3//-----2//--------------0//------------|
B|----------------------3//-----3//--------------0//--3/53------|
G|----------------------4//-----2//--------------0//-------4-4b-|
D|----------------------5//-----0//--------------2//------------|
A|----------------------5//-----0//--------------2//------------|
E|----------------------3//----------------------0//------------|

           G               Bm           C      D
   y no aguanto, me duele tanto estar asi...
E|--------3----------------2-----------0-0----2--|
B|--------3----------------3-----------1------3--|
G|--------4----------------4-----------0---0--2--|
D|--------5----------------4-----------2------0--|
A|--------5----------------2-----------3------0--|
E|--------3----------------------------0---------|

                 Em
   ...rayando el sol.


G  O:

   *c/distorcion:
1�12b�12p10-8-10/12--12-10------------|
B|--------------------------105--7-7b-|
G|-------------------------------------|
D|-------------------------------------|
A|-------------------------------------|
E|-------------------------------------|

E|-------------------------------3-------3-------5-----------3--|
B|-7-7b-5p3-5/7-5-3----3-----------3-3/5---3-5/7---7-10--------5|
G|-------------------4---4-4/5-5------------------------9-------|
D|--------------------------------------------------------10----|
A|--------------------------------------------------------------|
E|--------------------------------------------------------------|

E|-8-3-----2--------------12-12/14-12--|
B|-----5-----3| �-3-5-7--10--------------|
G|-------5-----------------------------|
D|-------------------------------------|
A|-------------------------------------|
E|-------------------------------------|

   *baja/distorcion:
E|-----10-5h7--12-15--------------12-15-12-10/12--8-----10----8-10|
2�5h7---------------17--17-17p15-------------------8------10-----
G|----------------------------------------------------9-----------|
D|----------------------------------------------------------------|
A|----------------------------------------------------------------|
E|----------------------------------------------------------------|


               G       D             Em   C
   Rayando el sol, ohe oh, desesperacion,
E|------------3//-----2//-------------------------|
B|------------3//-----3//-------------3/53-------|
G|------------4//-----2//-------------------4-4b--|
D|------------5//-----0//-------------------------|
A|------------5//-----0//-------------------------|
E|------------3//---------------------------------|

           G              Bm                 C   D
   es mas facil llegar al sol que ha tu corazon,
E|--------3---------------2-----------------0---------|
B|--------3---------------3-----------------1---------|
G|--------4---------------4-----------------0---------|
D|--------5---------------4-----------------2---------|
A|--------5---------------2-----------------3---------|
E|--------3---------------------------------0---------|

                 G        D Em       C
   rayando por ti, (rayando,   rayando) uhhhhhhhh
E|-------------3//-----2//-0//------0//-------|
B|-------------3//-----3//-0//------1//-------|
G|-------------4//-----2//-0//------0//-------|
D|-------------5//-----0//-2//------2//-------|
A|-------------5//-----0//-2//------3//-------|
E|-------------3//---------0//------0//-------|

         G              Bm      C         D               G
Rayando rayando el sol(rayando)  ay ay...... ay  , Rayando el sol
E|--------3-3-------------2-2------0-0---------2-2---------------|
B|--------3-----3---------3-----3--1-----1-----3-----3-----------|
G|--------4---4-----------4---4----0---0-------2---2------| FDE--- |
D|--------5---------------4--------2-----------0-----------| OUT---|
A|--------5---------------2--------3-----------0-----------------|
E|--------3------------------------0-----------------------------|
Composición de Alex / Fher
1 vistas
    • ½ Tono
    • A
    • Bb
    • B
    • C
    • Db
    • D
    • Eb
    • E
    • F
    • F#
    • G
    • Ab
  • Agregar a la lista

    0 comentarios

    Ver todos los comentarios

    ¿Lograste tocar?

    0 Tocaron 0 Aún no

    ¡Graba un video tocando Rayando El Sol y envíanoslo!

    00:00 / 00:00
    Outros vídeos desta música
    Repetir Calidad Automático
    Outros vídeos desta música
    00:00 / 00:00
    Automático
    OK