Cifra Club

Te Lloré Un Río

Maná

Cifrado: Principal (guitarra y guitarra eléctrica)
tono: E
INTRO:

   E         C#m              A              B
E|--------4---------7--------4---------------4--------2-2-2--4--2---º
B|----5-------5--------5--------5--------5------5------------------0-º
G|--4-----------------------------4----4----------4------------------ºX 2
D|-------------------------------------------------------------------º
A|-------------------------------------------------------------------º
E|-------------------------------------------------------------------º

   E         C#m              A                 B
E|--------4---------7--------4---------------4---------2--2/4---------º
B|----5-------5--------5--------5--------5------5--------------5/7--5-º
G|--4-----------------------------4----4----------4-------------------º
D|--------------------------------------------------------------------º
A|--------------------------------------------------------------------º
E|--------------------------------------------------------------------º


E                      B
Yo aquí llorandote un río
               C#m
mandándome al olvido
                B
que cosa mas injusta amor
E                      B
fuiste matando mis pasiones

E|-------------------------------------
B|---/10-10-10--9--7--9-7--------------
G|---/11-11-11--9--8--9-8--------------
D|-------------------------------------
A|-------------------------------------
E|-------------------------------------
                  C#m
tachando mis canciones

E|-----0-------------------------------
B|-------------------------------------
G|--/4---------------------------------
D|-------------------------------------
A|-------------------------------------
E|-------------------------------------  
              A
me tenías pisoteado
E|-----------------------
B|--5--7-----------------
G|--6--8-----------------
D|-----------------------
A|-----------------------
E|-----------------------

               B
estaba desahuseado
                  C#m
no es justo no bebé
   B
oh oh eh oh

            B                B-A#-A
E|--4--5--5/7--5--4----------------------
B|-------------------7-5-4---------------
G|---------------------------4-3-2-------
D|---------------------------4-3-2-------
A|---------------------------------------
E|---------------------------------------

A                    B
pero este mundo ya giró

E|--11/12--11-------------------
B|--12/14--12-------------------
G|------------------------------
D|------------------------------
A|------------------------------
E|------------------------------
                    C#m
y ahora te tocó perder
    B
oh oh eh oh

NOTA:mientras se toca el coro, se toca la intro
NOTA: Enquanto o coro é jogado , a intro é jogado

  E        C#m         A            B
bebé te lloré todo un río (bebé, bebé)
  E        C#m         A            B
bebé, te lloré a reventar (bebé, bebé)
  E        C#m             A        B
oh no no no, no tienes corazón, oh oh
                  E
no te vuelvo a amar
C#m               A
te lloré todo un río
B                  E
ahora llorame un mar
                B
E|--------------0--4p2p0---------
B|--------0--2-------------------
G|--1--2-------------------------
D|-------------------------------
A|-------------------------------
E|-------------------------------


 E                       B
Ya no me busques ya es muy tarde

E|-9---11-------------------------
B|-10--12-------------------------
G|--------------------------------
D|--------------------------------
A|--------------------------------
E|--------------------------------

             C#m
ya tengo otro amor
          B
una chula sirena

E|--9---11--12--11--9---7---------
B|--10--12--14--12--10--9---------
G|--------------------------------
D|--------------------------------
A|--------------------------------
E|--------------------------------

                 E
que nada en mi piel
E                        B
yo te perdono no hay rencores

E|-11--9-/11----------------------
B|-12--10/12----------------------
G|--------------------------------
D|--------------------------------
A|--------------------------------
E|--------------------------------

            C#m
solo los dolores
                A
mi alma esta arañada
               B
lloré el suelo mojado
               C#
no es justo no bebé

E|-9---11--11---12---12-----------
B|-10--12--12---14---14-----------
G|--------------------------------
D|--------------------------------
A|--------------------------------
E|--------------------------------

   B
oh oh veo

  B-A#-A
E|-7-6-5--------------------------
B|-7-6-5--------------------------
G|--------------------------------
D|--------------------------------
A|--------------------------------
E|--------------------------------

A                     B
pero este mundo ya giró

E|-/12--11------------------------
B|-/14--12------------------------
G|--------------------------------
D|--------------------------------
A|--------------------------------
E|--------------------------------
                 C#m
y ahora te tocó perder
        B
oh oh eh oh 

SE TOCA LA INTRO
TOCA DO INTRO


E      C#m                A
¡bebe! te llore todo un rio (bebe,bebe)
B
bebe, te llore a reventar (bebe,bebe)
E               C#m           A
oh no no nooooo, no tienes corazon(bebe)
B
no te vuelvo a amar
E                 C#m
te llore todo un rio
A                  B
ahora llorame un mar.

SOLO:

E|--------------0--4p2p0---------
B|--------0--2-------------------
G|--1--2-------------------------
D|-------------------------------
A|-------------------------------
E|-------------------------------

E|-/12--12-12--11--11-11--9---9---7-7----7--7--7---12-11---
B|-/14--14-14--12--12-12--10--10--9-9----9--9--9---14-12---
G|---------------------------------------------------------
D|--------------------------------------------------------
A|--------------------------------------------------------
E|--------------------------------------------------------

E|-----------------------------------------------------9--12-11----------
B|-------2-4-5--12-10-10/9--5-5-5/7-7/9--9-9-9/10---10-------------------
G|--1-2------------------------------------------------------------------
D|-----------------------------------------------------------------------
A|-----------------------------------------------------------------------
E|-----------------------------------------------------------------------

(E                  C#m
Verdad que un rio te llore ,
 A                      B
verdad que no te vuelvo a amar
               E     C#m           A         B
oh no no no no no, no te vuelvo a amar(uuuuuuuuuuuuuh)
 E                     C#m
Verdad que un rio te llore ,
  A                     B
verdad que no te vuelvo a amar
     E             C#m           A           B
oh no no no no no,pierdete en tu mar(uuuuuuuuuuuuuuh)

(ESTA PARTE ES MAS RAPIDA)
( Esta parte é mais rápido)

    E             C#m
Verdad que un rio te llore ,
   A               B
verdad que no te vuelvo a amar
 E         C#m      A      B         E.
llorame,llorame,llorame(uuuuuu)(fade out)
Composición de Alex Fher
Colaboración y revisión:
  • Angel Tony
  • Rafael Silvestrini
8.354 vistas
    • ½ Tono
    • A
    • Bb
    • B
    • C
    • Db
    • D
    • Eb
    • E
    • F
    • F#
    • G
    • Ab
  • Agregar a la lista

    0 comentarios

    Ver todos los comentarios

    ¿Lograste tocar?

    5 Tocaron 0 Aún no

    ¡Graba un video tocando Te Lloré Un Río y envíanoslo!

    00:00 / 00:00
    Outros vídeos desta música
    Repetir Calidad Automático
    Outros vídeos desta música
    00:00 / 00:00
    Automático
    OK