Cifra Club

Aprenda

Kevin Carter

Manic Street Preachers

Tablatura: Versão 4 (guitarra)
Tom: C
 Of 1996's 'Everything Must Go'

Tabbed by Mike Wood (*)
James plays it in open G. This might be wrong but its 
better than anyone else's effort

Intro
d --------------------------------
b --8--8--8--8--8--8--8-----------
g -10-10-10-10-10-10-10-----------
d -10-10-10-10-10-10-10-----------
g -10-10-10-10-10-10-10------8-10-
d ----------------------8b10------

d --------------------------------
b --8--8--8--8--8--8--8-----------
g -10-10-10-10-10-10-10-----------
d -10-10-10-10-10-10-10-----------
g -10-10-10-10-10-10-10------8-10-
d ----------------------8b10------

Verse 1:

d -------------------------------------------
b --8--8--8--8--8--8--8----------------------
g -10-10-10-10-10-10-10-10-10-10-10-10-10-10-
d -10-10-10-10-10-10-10-10-10-10-10-10-10-10-
g -10-10-10-10-10-10-10--9--9--9--9--9--9--9-
d -------------------------------------------
Hi time magazine hi pullitzer prize

d -----------------------------
b -----------------------------
g -8-8-8-8-8-8-8-8-8-8-8-8-8-8-
d -8-8-8-8-8-8-8-8-8-8-8-8-8-8-
g -8-8-8-8-8-8-8-6-6-6-6-6-6-6-
d -----------------------------
Tribal scars in technic-olour

d -----------------------------
d -----------------------------
g -6-6-6-6-6-6-6-6-6-6-6-6-6-6-
d -6-6-6-6-6-6-6-6-6-6-6-6-6-6-
g -6-6-6-6-6-6-6-6-6-6-6-6-6-6-
d -----------------------------
Bang bang club ak 47

Chorus:
d ---------------------3----------------
b -----------------------3---3h4p3------
g -6-6-6-6-6-6-6-6-0----------------3---
d -6-6-6-6-6-6-6-6-0-5-----5----------5-
g -6-6-6-6-6-6-6-6-0-5------------------
d --------------------------------------
Hour

d ---------------------3----------------
b -----------------------3---3h4p3------
g -6-6-6-6-6-6-6-6-0----------------3---
d -6-6-6-6-6-6-6-6-0-5-----5----------5-
g -6-6-6-6-6-6-6-6-0-5------------------
d --------------------------------------

Verse 2:

d -------------------------------------------
b --8--8--8--8--8--8--8----------------------
g -10-10-10-10-10-10-10-10-10-10-10-10-10-10-
d -10-10-10-10-10-10-10-10-10-10-10-10-10-10-
g -10-10-10-10-10-10-10--9--9--9--9--9--9--9-
d -------------------------------------------
Hi time magazine hi pullitzer prize

d -----------------------------
b -----------------------------
g -8-8-8-8-8-8-8-8-8-8-8-8-8-8-
d -8-8-8-8-8-8-8-8-8-8-8-8-8-8-
g -8-8-8-8-8-8-8-6-6-6-6-6-6-6-
d -----------------------------
Vulture stalked white piped lie forever

d -----------------------------
d -----------------------------
g -6-6-6-6-6-6-6-6-6-6-6-6-6-6-
d -6-6-6-6-6-6-6-6-6-6-6-6-6-6-
g -6-6-6-6-6-6-6-6-6-6-6-6-6-6-
d -----------------------------
Wasted your life in black and white

Chorus:
d ---------------------3----------------
b -----------------------3---3h4p3------
g -6-6-6-6-6-6-6-6-0----------------3---
d -6-6-6-6-6-6-6-6-0-5-----5----------5-
g -6-6-6-6-6-6-6-6-0-5------------------
d --------------------------------------

d ---------------------3----------------
b -----------------------3---3h4p3------
g -6-6-6-6-6-6-6-6-0----------------3---
d -6-6-6-6-6-6-6-6-0-5-----5----------5-
g -6-6-6-6-6-6-6-6-0-5------------------
d --------------------------------------

d ---------------------3----------------
b -----------------------3---3h4p3------
g -6-6-6-6-6-6-6-6-0----------------3---
d -6-6-6-6-6-6-6-6-0-5-----5----------5-
g -6-6-6-6-6-6-6-6-0-5------------------
d --------------------------------------

d ---------------------3----------------
b -----------------------3---3h4p3------
g -6-6-6-6-6-6-6-6-0----------------3---
d -6-6-6-6-6-6-6-6-0-5-----5----------5-
g -6-6-6-6-6-6-6-6-0-5------------------
d --------------------------------------

Solo:
d ---------------------
b ----9-8-------9-8----
g -10-----10-10-----10-
d ---------------------
g ---------------------
d ---------------------

d ---------------------
b ----9-8-------9-8----
g -10-----10-10-----10-
d ---------------------
g ---------------------
d ---------------------

d -------------------------------------------
b ----9-8-------9s11-9-8----------8h9p8------
g -10-----10-10----------10-10-10-------10-7-
d -------------------------------------------
g -------------------------------------------
d -------------------------------------------

d --------------------------10-8-------------
b -8h9p8----------9p8------------9-8-------8-
g -------10-10-10-----10-10----------10-10---
d -------------------------------------------
g -------------------------------------------
d -------------------------------------------

d -8-----8------------------------
b ---8-9---8-------9p8----9p8-----
g -----------10-10-----10-----7-8-
d --------------------------------
g --------------------------------
d --------------------------------

d --------------------------
b -trem pick----------------
g -1s17------15-13-12h13p12-
d --------------------------
g --------------------------
d --------------------------

Bridge:
d ----------------------------------------------
b -------11-------------------3h4-----3h4-------
g -----10---10-8-10-8-10-8-0-5----5-5-----0-1-1-
d ---10-----10-8-10-8-10-8-0-5----5-5-----0-1-1-
g -10-------10-8-10-8-10-8-0--------------0-1-1-
d ----------------------------------------------
Ooh ooh ooh ooh ooh ooh ooh ooh ooh ooh

d ------------------------------3---------------
b --------------------------------3--3h4p3------
g -10-8-10-8-10-8-1-1-0-1-6-0--------------3----
d -10-8-10-8-10-8-1-1-0-1-6-0-5----5---------5--
g -10-8-10-8-10-8-1-1-0-1-6-0-5-----------------
d ----------------------------------------------

Verse 3:

d -------------------------------------------
b --8--8--8--8--8--8--8----------------------
g -10-10-10-10-10-10-10-10-10-10-10-10-10-10-
d -10-10-10-10-10-10-10-10-10-10-10-10-10-10-
g -10-10-10-10-10-10-10--9--9--9--9--9--9--9-
d -------------------------------------------
The elephant is so ugly slppes his head machetes his bed

d -----------------------------
b -----------------------------
g -8-8-8-8-8-8-8-8-8-8-8-8-8-8-
d -8-8-8-8-8-8-8-8-8-8-8-8-8-8-
g -8-8-8-8-8-8-8-6-6-6-6-6-6-6-
d -----------------------------
Kevin carter Kaffir lover forver

d -----------------------------
d -----------------------------
g -6-6-6-6-6-6-6-6-6-6-6-6-6-6-
d -6-6-6-6-6-6-6-6-6-6-6-6-6-6-
g -6-6-6-6-6-6-6-6-6-6-6-6-6-6-
d -----------------------------
Click click click click click click himself UNDER

Chorus:
d ---------------------3----------------
b -----------------------3---3h4p3------
g -6-6-6-6-6-6-6-6-0----------------3---
d -6-6-6-6-6-6-6-6-0-5-----5----------5-
g -6-6-6-6-6-6-6-6-0-5------------------
d --------------------------------------

d ---------------------3----------------
b -----------------------3---3h4p3------
g -6-6-6-6-6-6-6-6-0----------------3---
d -6-6-6-6-6-6-6-6-0-5-----5----------5-
g -6-6-6-6-6-6-6-6-0-5------------------
d --------------------------------------

d ---------------------3----------------
b -----------------------3---3h4p3------
g -6-6-6-6-6-6-6-6-0----------------3---
d -6-6-6-6-6-6-6-6-0-5-----5----------5-
g -6-6-6-6-6-6-6-6-0-5------------------
d --------------------------------------

d ---------------------3----------------
b -----------------------3---3h4p3------
g -6-6-6-6-6-6-6-6-0----------------3---
d -6-6-6-6-6-6-6-6-0-5-----5----------5-
g -6-6-6-6-6-6-6-6-0-5------------------
d --------------------------------------


Ending:
d -------------------
b -3-4-3-4-3-4-3-4-3-
g -3-3-3-3-3-3-3-3-3-
d -5-5-5-5-5-5-5-5-5-
g -5-5-5-5-5-5-5-5-5-
d -------------------
Compositor James Dean Bradfield / Nicky Wire / Richey James / Sean Moore
    • ½ Tom
    • A
    • Bb
    • B
    • C
    • Db
    • D
    • Eb
    • E
    • F
    • F#
    • G
    • Ab
  • Adicionar à lista

    0 comentarios

    Mostrar mais comentários

    ¿Conseguiste tocar?

    0 Tocaron 0 Ainda não

    Grave um vídeo tocando Kevin Carter e mande pra gente!

    00:00 / 00:00
    outros vídeos desta música
    repetir qualidade Automático
    Outros vídeos desta música
    00:00 / 00:00
    Automático
    OK