Cifra Club

Dez Segundos

Manitu

Cifrado: Principal (guitarra y guitarra eléctrica)
tono: G
Riff 1:
E|----9-10-12-10-9-10----9--------9-10-12-10-9-10-14-17-15-14------
B|-10-----------------12---10--10----------------------------------

E|----9-10-12-10-9-10----9--------9-10-12-10-9-10-17-15-14-9---10--
B|-10-----------------12---10--10---------------------------10-----

Riff 2:
E|------------14-14-14-12-12-12-9-9-9-7-5-3-3-2-0------------------
B|-7-10-12-15-------------------------------------3----------------

E|-5-2-10-7-2/14-14/2-3-10-9/2-------------------------------------
B|-----------------------------------------------------------------

Riff 3:
E|----17-14-------------17-14-----------------------14-------------
B|----------17-15-------------17-15---------15-17-17---17-15-------
G|-14-------------16-14-------------16-14--------------------------
D|----------------------------------------17-----------------------

E|----17-14-------------17-14-----------------------15-14----------
B|----------17-15-------------17-15---------15-17-17---------------
G|-14-------------16-14-------------16-14--------------------------
D|----------------------------------------17-----------------------

D                                      Em
tô em itapema, vento forte maresia ta comendo minha guitarra,
                    D                       Em
eu sinto falta do sô uai, parece até com o Hawai
D
foi de relance o vento forte na minha cara, eu tava 
  Em
afim de sair fora
                  D                         Em
achar o sol no litoral, o clima ta ficando mau

D                                 Em
quero a razao para eu ficar aqui, foi so pensar a causa me flertou 

REFRÃO:
      D                   Em
     ainda lembro do seu olho ao meu
      F#m              G
     dez segundos se eternizou
        F#m               G
     humildemente ela se revelou

D
essa galega eu vo rouba pra mim
Em
eu vo tentar eu vo até o fim

D                                           Em
no tonhonho lá na balada, eu vejo ela de quebrada de mão dada
                 D                           Em    
tô me sentindo alto astral, o desafio é natural
D
que prepotência e essa acha que a mina é minha, ta
Em                                        D
com o cara deixa queto, eu vo curtir o litoral, 
                    Em
deixar a mente mais astral

D                            Em
agora eu fico até o sol raiar, entrego a sorte para o ceu e o mar

REFRÃO:
      D                   Em
     ainda lembro do seu olho ao meu
      F#m              G
     dez segundos se eternizou
        F#m               G
     humildemente ela se revelou

D
essa galega eu vo rouba pra mim
Em
eu vo tentar eu vo ate o fim

(Riff 2)

D                                             Em
tô em Floripa com a galera o meu destino agora é 
comburiu
                D
o sol me deixa na minha praia, to com a moçada da 
       Em
minha laia
D
a noite agora é lá na brava la no camping tem 
  Em
balada no bacana
             D                         Em
a lua vem e beija o mar conexão a esperar
D                                Em
eu sinto o beijo dela mesmo assim, eu quero um meio de chegar ao fim

REFRÃO: (2x)
      D                   Em
     ainda lembro do seu olho ao meu
      F#m              G
     dez segundos se eternizou
        F#m               G
     humildemente ela se revelou

D
essa galega eu vo rouba pra mim
Em
eu vo tentar eu vo ate o fim

(Riff 3) ,(Riff 1) e fim.
Composición de Alexandre Maia
Colaboración y revisión:
  • Lucas Miranda
46 vistas
    • ½ Tono
    • A
    • Bb
    • B
    • C
    • Db
    • D
    • Eb
    • E
    • F
    • F#
    • G
    • Ab
  • Agregar a la lista

    0 comentarios

    Ver todos los comentarios

    ¿Lograste tocar?

    1 Tocaron 0 Aún no

    ¡Graba un video tocando Dez Segundos y envíanoslo!

    00:00 / 00:00
    Outros vídeos desta música
    Repetir Calidad Automático
    Outros vídeos desta música
    00:00 / 00:00
    Automático
    OK