Cifra Club

Estória

Manitu

Cifrado: Principal (guitarra y guitarra eléctrica)
tono: C
Rif 1: 
E|-------------------------------------12------------------
B|-------13-13-13-12-12/13----------13----15-13-12---------
G|-12/14-------------------14-12/14----------------15-12-5-
D|---------------------------------------------------------
A|---------------------------------------------------------
E|---------------------------------------------------------

Rif 2:
E|----------------------------------------12-13-12-13-15---
B|-------13-13-13-12-12/13----------13-15------------------
G|-12/14-------------------14-12/14------------------------
D|---------------------------------------------------------
A|---------------------------------------------------------
E|---------------------------------------------------------

Rif 3:
E|-----------8-5--13-12-10---------------------------------
B|-----5-6-8---------------13-12----15----------5-----5-8--
G|-5-7---------------------------12---------5-7---7-5------
D|--------------------------------------5-7----------------
A|---------------------------------------------------------
E|---------------------------------------------------------

E|-----5-12-10-8---12-15-12-10-9---------------------------
B|-5-8-----------8-----------------------------------------
G|---------------------------------------------------------
D|---------------------------------------------------------
A|---------------------------------------------------------
E|---------------------------------------------------------

 ( C  Am  Dm  G )
São momentos assim que eu tento passar 
o que eu quero expressar
O que eu estou sentindo transcende minha mente
Não dá pra explicar 
Então vai ser nessa canção
Coisa simples de ouvir que é bom de lembrar

Naquela festa em que eu te vi não esqueço jamais 
o que eu senti
O fora na escada, 
e o começo da história que não se acaba

Rif 2

Vem já pra minha casa, traz um vinho e não deixe
seu pai perguntar
Solte aquele 171: 
"-Na casa da amiga eu vou estudar."

Vem já pra minha casa, 
deixe o orgulho de lado e vem relaxar
Lembre do que eu sempre falo: 
"A vida é boa, mas a faço a girar."

Rif 3

( C#  A#m  Ebm  G# )
Vem já pra minha casa, traz um vinho e não deixe
seu pai perguntar
Solte aquele 171: 
"-Na casa da amiga eu vou estudar."

Vem já pra minha casa, 
deixe o orgulho de lado e vem relaxar
Lembre do que eu sempre falo: 
"A vida é boa, mas a faço a girar."
Composición de Alexandre Maia
Colaboración y revisión:
  • FelipeAugusto????????
  • Sofia Medeiros
61 vistas
    • ½ Tono
    • A
    • Bb
    • B
    • C
    • Db
    • D
    • Eb
    • E
    • F
    • F#
    • G
    • Ab
  • Agregar a la lista

    0 comentarios

    Ver todos los comentarios

    ¿Lograste tocar?

    2 Tocaron 0 Aún no

    ¡Graba un video tocando Estória y envíanoslo!

    00:00 / 00:00
    Otros videos de esta canción
    Repetir Calidad Automático
    Otros videos de esta canción
    00:00 / 00:00
    Automático
    OK