Cifra Club

Ócio Criativo

Manitu

Cifrado: Principal (guitarra y guitarra eléctrica)
tono: G
Guitarra solo(introdução e refrão): 
E|---7-------7------8-5-5/7---5/7---5/7-----------------
B|-----8-------7--5---------8-----8-----8---------------
G|-7------7---------------------------------------------
Fazer variações ao longo da música

Intro: G Bm Am D
 
G                     Bm       Am                
Menina quando eu te vejo, me sinto 
              D
um ócio criativo
G                     Bm     Am                
Nessa era pós indústrial, o teu 
                   D
olhar é o grande jogo
G                     Bm       Am                
O meu estudo é pra te conquistar, o 
                        D 
meu trabalho é te ver passar
G                             Bm 
Faço o que gosto, olha minha afeição
Am                        D
Ao som do samba sinto um novo coração.

G     Bm      Am       D
Menina da Manitu... Menina
G     Bm      Am       D
Menina da Manitu... Menina

G                           Bm 
Contrato o céu só pra te entender, 
  Am                       D
nas coisas tolas lembro de você
G                     Bm
Vejo um casal apreciando o pôr do 
      Am                   D
sol, mais uma vez eu lembro de você
G                     Bm                      
De fundo um som bate brisa do mar, 
      Am                    D
mais uma vez me faz lembrar você
G                     Bm                      
Meu universo expande natural, nas 
  Am                  D
coisas tolas que me faz lembrar você

G     Bm      Am       D
Menina da Manitu... Menina
G     Bm      Am       D
Menina da Manitu... Menina
 

solo
E|-------------5-7-5------5------------10----10---------
B|-----5-8-5-8-------8-5----8-5-----12----12----12-10---
G|-4-7-------------------7----------------------------12

E|-------------5-7-5-------5------10-10-10--------------
B|-----5-8-5-8-------8-5-----8-5-----------10-8---------
G|-4-7-------------------7------------------------------

E|--12-15-12-10-10--7-7-10-8-7-8------------------------
B|---------------------------------8-10-12-10-8---------
G|-------------------------------9----------------------

E|-------5---7---10-10-12-12-15-12-10-10-10-10-8-8-8----
B|---8--------------------------------------------------
G|-7---7---7---7----------------------------------------

E|-7-7-7--5-3-5--7-7--8-8-8-10-12-12-10--8-7-7-7-5-5-3--
B|------------------------------------------------------
G|------------------------------------------------------

E|----------------------------5/7-5---5/7-5-7-----------
B|---8-7---8-7---8-7---8-10-10------8----------8--------
G|-7-----7-----7-----7----------------------------------
Composición de Alexandre Maia
Colaboración y revisión:
  • Bruno Soares
23 vistas
    • ½ Tono
    • A
    • Bb
    • B
    • C
    • Db
    • D
    • Eb
    • E
    • F
    • F#
    • G
    • Ab
  • Agregar a la lista

    0 comentarios

    Ver todos los comentarios

    ¿Lograste tocar?

    0 Tocaron 0 Aún no

    ¡Graba un video tocando Ócio Criativo y envíanoslo!

    00:00 / 00:00
    Outros vídeos desta música
    Repetir Calidad Automático
    Outros vídeos desta música
    00:00 / 00:00
    Automático
    OK