Cifra Club

Juramento do Dedinho

Mano Walter

Tablatura: Principal (guitarra)
reproducciones 231
Tono: G#m
[Intro] E  F#  G#m

                            E
E|-9/11-11-11-14-12-11---7-7-7-9-11-------------------|
B|----------------------------------------------------|
G|----------------------------------------------------|
D|----------------------------------------------------|
A|----------------------------------------------------|
E|----------------------------------------------------|

          F#                G#m
E|-9/11-11-11-14-12-11---7-7-6-7-6-4------------------|
B|----------------------------------------------------|
G|----------------------------------------------------|
D|----------------------------------------------------|
A|----------------------------------------------------|
E|----------------------------------------------------|

                            E
E|-9/11-11-11-14-12-11---7-7-7-9-11-------------------|
B|----------------------------------------------------|
G|----------------------------------------------------|
D|----------------------------------------------------|
A|----------------------------------------------------|
E|----------------------------------------------------|

          F#                G#m
E|-9/11-11-11-14-12-11---7-7-6-7-6-4------------------|
B|----------------------------------------------------|
G|----------------------------------------------------|
D|----------------------------------------------------|
A|----------------------------------------------------|
E|----------------------------------------------------|

E                  F#                G#m
Ela só quer encontrar um coração partido
            D#m            E        F#
Que também já tenha sofrido por amor
 E                     F#                   G#m
Vou oferecer o que restou do meu peito para ela
    D#m                            E
Juntar a minha tampa com a panela dela
      F#                            B
Temperar a nossa vida ainda mais sabor

    E                      F#
Eu tenho um abraço pra te dar
                  B          Bb5(9)      G#m
Você quer que eu leve aí ou você vem aqui buscar
            E               F#
Te prometo não te prometer nada
            B              Bb5(9)     G#m
Não tem sentido te dar casa comida e roupa lavada
       E       F#
Se faltar amor
       E       F#
Se faltar amor

                   E              F#
Vamos fazer o juramento do dedinho
                 G#m
Juntar o meu mindinho com o seu mindinho
   F#            E           F#
Então fechou o trato tá feito
                    G#m                       F#
Aqui não tem assinatura a gente sela com um beijo

                   E              F#
Vamos fazer o juramento do dedinho
                 G#m
Juntar o meu mindinho com o seu mindinho
   F#            E           F#
Então fechou o trato tá feito
                    G#m                       F#
Aqui não tem assinatura a gente sela com um beijo

                            E
E|-9/11-11-11-14-12-11---7-7-7-9-11-------------------|
B|----------------------------------------------------|
G|----------------------------------------------------|
D|----------------------------------------------------|
A|----------------------------------------------------|
E|----------------------------------------------------|

          F#                G#m
E|-9/11-11-11-14-12-11---7-7-6-7-6-4------------------|
B|----------------------------------------------------|
G|----------------------------------------------------|
D|----------------------------------------------------|
A|----------------------------------------------------|
E|----------------------------------------------------|

                             E
E|-9/11-11-11-14-12-11---7-7-7-9-11-------------------|
B|----------------------------------------------------|
G|----------------------------------------------------|
D|----------------------------------------------------|
A|----------------------------------------------------|
E|----------------------------------------------------|

          F#                G#m
E|-9/11-11-11-14-12-11---7-7-6-7-6-4------------------|
B|----------------------------------------------------|
G|----------------------------------------------------|
D|----------------------------------------------------|
A|----------------------------------------------------|
E|----------------------------------------------------|

    E                      F#
Eu tenho um abraço pra te dar
                  B         Bb5(9)         G#m
Você quer que eu leve aí ou você vem aqui buscar
            E               F#
Te prometo não te prometer nada
            B               Bb5(9)            G#m
Não tem sentido não te dar casa comida e roupa lavada
       E       F#
Se faltar amor
       E       F#
Se faltar amor

                   E              F#
Vamos fazer o juramento do dedinho
                 G#m
Juntar o meu mindinho com o seu mindinho
   F#            E           F#
Então fechou o trato tá feito
                    G#m                       F#
Aqui não tem assinatura a gente sela com um beijo

                   E              F#
Vamos fazer o juramento do dedinho
                 G#m
Juntar o meu mindinho com o seu mindinho
   F#            E           F#
Então fechou o trato tá feito
                    G#m                       F#
Aqui não tem assinatura a gente sela com um beijo
   F#            E           F#
Então fechou o trato tá feito
                    G#m                       F#
Aqui não tem assinatura a gente sela com um beijo

[Final] E  F#  G#m

                            E
E|-9/11-11-11-14-12-11---7-7-7-9-11-------------------|
B|----------------------------------------------------|
G|----------------------------------------------------|
D|----------------------------------------------------|
A|----------------------------------------------------|
E|----------------------------------------------------|

          F#                G#m
E|-9/11-11-11-14-12-11---7-7-6-7-6-4------------------|
B|----------------------------------------------------|
G|----------------------------------------------------|
D|----------------------------------------------------|
A|----------------------------------------------------|
E|----------------------------------------------------|
Acordes para:
    Colaboración y revision:

    0 comentarios

    mostrar más comentarios

    ¿Conseguiste tocar?

    31 tocaron 26 aún no

    ¡Graba un vídeo tocando Juramento do Dedinho y envianoslo!

    00:00 / 00:00
    outros vídeos desta música
    repetir qualidade Automático
    Outro vídeos desta música
    00:00 / 00:00
    Automático
    OK